Song name
# A B C D E F G H I J K L M N O P Q R S T U V W X Y Z

Optimus Rhyme - Autobeat Airbus tab

Tabbed by: EddyMorino
Email: EddyMorino@yahoo.com

Tuning: EADGBe

Chorus:

e|-------10-------10-------10-------10-------11-10---------------------------|
B|----11-------11-------11-------11-------11---------------------------------|
G|-12-------12-------12-------12-------12------------------------------------|
D|---------------------------------------------------------------------------|
A|---------------------------------------------------------------------------|
E|---------------------------------------------------------------------------|

e|-------8-------8-------8-------8-------------------------------------------|
B|----10------10------10------10------10-11-10-------------------------------|
G|-11------11------11------11------11----------------------------------------|
D|---------------------------------------------------------------------------|
A|---------------------------------------------------------------------------|
E|---------------------------------------------------------------------------|

e|-------10-------10-------10-------10-------11-10---------------------------|
B|----11-------11-------11-------11-------11---------------------------------|
G|-12-------12-------12-------12-------12------------------------------------|
D|---------------------------------------------------------------------------|
A|---------------------------------------------------------------------------|
E|---------------------------------------------------------------------------|

e|-------8-------8-------8-------8-------------------------------------------|
B|----10------10------10------10------10-11-10-------------------------------|
G|-11------11------11------11------11----------------------------------------|
D|---------------------------------------------------------------------------|
A|---------------------------------------------------------------------------|
E|---------------------------------------------------------------------------|

Right After Chorus:

e|---------------------------------------------------------------------------|
B|-8--8--8-8-----------------------------------------------------------------|
G|---------------------------------------------------------------------------|
D|---------------------------------------------------------------------------|
A|---------------------------------------------------------------------------|
E|---------------------------------------------------------------------------|

Verse:

e|------------------------------------------------10-------------------------|
B|-8---11-11-11-10-8----11-11-11-10-8---8---11-11----8-----------------------|
G|-----------------------------------------------------11---12-12-12-11-10-11|
D|---------------------------------------------------------------------------|
A|---------------------------------------------------------------------------|
E|---------------------------------------------------------------------------|

e|---------------------------------------------------------------------------|
B|-------------------10-10-10-8-7--------------10-8--------------------------|
G|-7--11-11-11-9-7--------------------7---9-11-------------------------------|
D|---------------------------------------------------------------------------|
A|---------------------------------------------------------------------------|
E|---------------------------------------------------------------------------|

e|------------------------------------------------10-------------------------|
B|-8---11-11-11-10-8----11-11-11-10-8---8---11-11----8-----------------------|
G|-----------------------------------------------------11---12-12-12-11-10-11|
D|---------------------------------------------------------------------------|
A|---------------------------------------------------------------------------|
E|---------------------------------------------------------------------------|

e|---------------------------------------------------------------------------|
B|-------------------10-10-10-8-7--------------10----------------------------|
G|-7--11-11-11-9-7--------------------7---9-11-------------------------------|
D|---------------------------------------------------------------------------|
A|---------------------------------------------------------------------------|
E|---------------------------------------------------------------------------|

Then right before the chorus there's a little riff I haven't figured out yet.

That's about the entire song, have fun, if you have any corrections then email me and I 
give you credit.
Thank you, and remember:
It's the Optimus.  No stoppin' this.


| /  slide up
| \  slide down
| h  hammer-on
| p  pull-off
| ~  vibrato
| +  harmonic
| x  Mute note
===============================================================================
Tap to rate this tab
# A B C D E F G H I J K L M N O P Q R S T U V W X Y Z