Song name
# A B C D E F G H I J K L M N O P Q R S T U V W X Y Z

Optimus Rhyme - I Heart Pubotcs tab

Artist: Optimus Rhyme
-Album: Optimus Rhyme
--Song: I Heart Pubotcs
---Tab: #9

Transcribed by Exo M7.

For questions/comments/tab requests, the email is jd0922@yahoo.com.

All guitars in standard tuning. Use a clean tone.

~~~~~~

These are the only parts played in the song, listen to it to see where they fit in.

Intro/Bridge
1st:------------|
2nd:------------|
3rd:------------|
4th:---------2--|
5th:-------2----|
6th:-0/3/5------|

Main
1st:--------------------------|
2nd:--------------------------|
3rd:-9---7-9---7-9---7-7-7-7--|
4th:--------------------------|
5th:-7---5-7---5-7---5-5-5-5--|
6th:--------------------------|
(this drops out at various parts of the song, but the rhythm and notes never change)

There is also a palm muted and flanged part in the background at one point where you 
play this:
1st:--------------------------------|
2nd:--------------------------------|
3rd:-9-9-9-7-9-9-9-7-9-9-9-7-7-7-7--|
4th:--------------------------------|
5th:--------------------------------|
6th:--------------------------------|

Ending
1st:---12-----10-----9-----8-----7-----5---3----|
2nd:--------------------------------------------|
3rd:-9----9-7----7-6---6-5---5-4---4-2---0------|
4th:-----------------------------------------2--|
5th:--------------------------------------------|
6th:--------------------------------------------|
Tap to rate this tab
# A B C D E F G H I J K L M N O P Q R S T U V W X Y Z