Song name
# A B C D E F G H I J K L M N O P Q R S T U V W X Y Z

Optimus Rhyme - Fuzzy Dice tab

-------------------------------------------------------------------------------
			     FUZZY DICE - Optimus Rhyme
-------------------------------------------------------------------------------
Tabbed by: EddyMorino
Email: EddyMorino@yahoo.com

Tuning: Standard

Intro:

e|------------------------10----11-10-8---10-8-6-----------------------------|
B|-8-10-11----8-10-11--------------------------------10h11-------------------|
G|---------------------7--------------------------7--------------------------|
D|---------------------------------------------------------------------------|
A|---------------------------------------------------------------------------|
E|---------------------------------------------------------------------------|

Chorus part 1 (x2):

e|------------------------------11-10-8--------------------------------------|
B|-8-10-11-------------------------------------------10h11-------------------|
G|------------------------------------------------7--------------------------|
D|---------------------------------------------------------------------------|
A|---------------------------------------------------------------------------|
E|---------------------------------------------------------------------------|

Chorus part 2 (x2):

e|------------------------10----11-10-8---10-8-6-----------------------------|
B|-8-10-11----8-10-11--------------------------------10h11-------------------|
G|---------------------7--------------------------7--------------------------|
D|---------------------------------------------------------------------------|
A|---------------------------------------------------------------------------|
E|---------------------------------------------------------------------------|

Verse part 1:

e|---------------------------------------------------------------------------|
B|-8-----10--11------13----10h11-8-----6/8----10--11---13-----11/15----------|
G|---------------------------------------------------------------------------|
D|---------------------------------------------------------------------------|
A|---------------------------------------------------------------------------|
E|---------------------------------------------------------------------------|

Verse 2:

e|---------------------------------------------------------------------------|
B|-8-10-11----------------8-10-11--------------------------------------------|
G|---------------------------------------------------------------------------|
D|-------------12-10------------------12-10-10-------------------------------|
A|---------------------------------------------------------------------------|
E|---------------------------------------------------------------------------|

That's all for now.  Figure any other part out?  Email me.

| /  slide up
| \  slide down
| h  hammer-on
| p  pull-off
| ~  vibrato
| +  harmonic
| x  Mute note
===============================================================================
Tap to rate this tab
# A B C D E F G H I J K L M N O P Q R S T U V W X Y Z