Optimus Rhyme - Sick Day tab

-------------------------------------------------------------------------------
		SICK DAY - Optimus Rhyme - School The Indie Rockers
-------------------------------------------------------------------------------
Tabbed by: BlindMarine

Tuning: EADGBe

This is probably one of OR's best songs (and one of my favourites), and it's 
fairly easy to play, too!
This is the basic pattern, at some points in the song the instruments are silent 
(eg: the cough part). 
Also, Powerthighs tends to throw a few more of the same chords in when OR play this live.

Verse 1: 

Main Riff:
e|--------------------------------------------------------------------------|
B|--------------------------------------------------------------------------|
G|-9--9-9-9-----10--9--9-9-9-----10--9--9-9-9-----10--9--14-14-14--12-12-12-|
D|-9--9-9-9--9--10--9--9-9-9--9--10--9--9-9-9--9--10--9--14-14-14--12-12-12-|
A|-7--7-7-7--9--8---7--7-7-7--9--8---7--7-7-7--9--8---7--12-12-12--10-10-10-|
E|-----------7----------------7----------------7----------------------------| x7

Verse 1 Riff 2:
e|------------------------------------------------------|
B|------------------------------------------------------|
G|-9--9-9-9-----10--9--9-9-9-----10--9--9-9-9-----10--9-|
D|-9--9-9-9--9--10--9--9-9-9--9--10--9--9-9-9--9--10--9-|
A|-7--7-7-7--9--8---7--7-7-7--9--8---7--7-7-7--9--8---7-|
E|-----------7----------------7----------------7--------|

e|-----------------------|
B|-----------------------|
G|-9-9-9-9-9-9-9-9-9-9-9-|
D|-9-9-9-9-9-9-9-9-9-9-9-|
A|-7-7-7-7-7-7-7-7-7-7-7-|
E|-----------------------| x4

Pre-chorus:
"I'm just another dude..."
e|------------------------------------------------|
B|------------------------------------------------|
G|-9--9--9-9-9--12-11-12--11-11-11-11-11-11-11-11-|
D|-9--9--9-9-9--12-11-12--11-11-11-11-11-11-11-11-|
A|-7--7--7-7-7--10-9--10--9--9--9--9--9--9--9--9--|
E|------------------------------------------------| x6

Chorus:
"Raise your voices..."
e|-------------------------------------------------|
B|-------------------------------------------------|
G|-------------------------------------------------|
D|-10--10--10-10--10-10-10-10---9--9--9-9--9-9-9-9-|
A|-10--10--10-10--10-10-10-10---9--9--9-9--9-9-9-9-|
E|-8---8---8--8---8--8--8--8----7--7--7-7--7-7-7-7-| x2

Verse 2 is similar, it goes:
	
Main riff x4

Then: Verse 2 Riff 1:
"This is Andrew Hart, I'm not feelin' too well..."
e|-12--12--12--12-12b13r12--10-|
B|-----------------------------|
G|-----------------------------|
D|-----------------------------|
A|-----------------------------|
E|-----------------------------| x7
^The Main Riff is also played underneath this^

"Hook, line and sinker..." 
e|---------------------------|
B|---------------------------|
G|-9--9---14-14-14--12-12-12-|
D|-9--9---14-14-14--12-12-12-|
A|-7--7---12-12-12--10-10-10-|
E|---------------------------| 

Main Riff x2

Chorus:

Same as before

Ending (Slight variation of Main Riff (one extra chord on the end)):
e|----------------------------------------------------------------------------|
B|----------------------------------------------------------------------------|
G|-9--9-9-9-----10--9--9-9-9-----10--9--9-9-9-----10--9--14-14-14--12-12-12-9-|
D|-9--9-9-9--9--10--9--9-9-9--9--10--9--9-9-9--9--10--9--14-14-14--12-12-12-9-|
A|-7--7-7-7--9--8---7--7-7-7--9--8---7--7-7-7--9--8---7--12-12-12--10-10-10-7-|
E|-----------7----------------7----------------7------------------------------|

Corrections? Suggestions? Email: aidpriest@gmail.com
************************************

| /   slide up
| \   slide down
| h   hammer-on
| p   pull-off
| ~   vibrato
| +   harmonic
| x   Mute note
| b   Bend
| pb  Pre-bend
| br  Bend release
| pbr Pre-bend release
| brb Bend release bend

************************************
Tap to rate this tab
 
# A B C D E F G H I J K L M N O P Q R S T U V W X Y Z