Song name
# A B C D E F G H I J K L M N O P Q R S T U V W X Y Z

Or Just Not - Girl I Used To Love tab

#----------------------------------PLEASE NOTE--------------------------------#
#This file is the author's own work and represents their interpretation of the#
#song. You may only use this file for private study, scholarship, or research.#
#-----------------------------------------------------------------------------#
#-- File created with Instab - http://www.pconline.com/~smcarey/instab.html --#
#-----------------------------------------------------------------------------#

Author/Artist: Or Just Not
Title: The Girl I Used To Love
Album: Cockfoster Square
Transcribed by: Simon
Email: mr_mooose@hotmail.com

------------------------------------------------------------------|------------|
------------------------------------------------------------------|------------|
------------------------------------------------------------------|------------|
-----2-----2---2-----4-----4-0-----2-----2---2-----4-----4-0---x2-|-22222222---|
-------------------------------0-0---0-0---0---2-2---2-2----------|-22222222---|
-0-0---0-0---0---2-2---2-2----------------------------------------|-00000002---|
                                                                    |----------|

-----------------------------|----------------------------------|-------------|
-----------------------------|----------------------------------|-------------|
----------22222222-44444444--|-----------------xx2-xx2-xx4-xx4--|-9--9-9--11--|
-44444444-22222222-44444444--|-xx2-xx2-xx4-xx4-xx2-xx2-xx4-xx4--|-9--9-9--11--|
-44444444-00000000-22222222--|-xx2-xx2-xx4-xx4-xx0-xx0-xx2-xx2--|-7--7-7---9--|
-22222222--------------------|-xx0-xx0-xx2-xx2------------------|-------------|
 ----pm------------------x2---------------------------------------------------|                                 x2

-----------------------|------------------------------------------------------|
-----------------------|------------------------------------------------------|
-11-11--2--2-2--4--4-4-|------------------------------------------------------|
-11-11--2--2-2--4--4-4-|------------------------------------------------------|
--9--9--0--0-0--2--2-2-|------------------------------------------------------|
-----------------------|------------------------------------------------------|
                    x4
Tap to rate this tab
# A B C D E F G H I J K L M N O P Q R S T U V W X Y Z