Song name
# A B C D E F G H I J K L M N O P Q R S T U V W X Y Z

Orange 9mm - When You Lie tab

T1: Hilton Kaskela, kidrock4@hotmail.com, Orange 9mm, When You Lie, 29
  august, 99 

  S1: Drop D tuning (from low to high DADGBE) very easy song, 

  Main Riff 
  ~~~~~~~~~ 

  |--------| 
  |--------| 
  |--------| 
  |--3-3-3-| 
  |--3-3-3-| 
  |--3-3-3-| 


  Chorus 
  ~~~~~~ 

  |---------------------------------------------------------------| 
  |---------------------------------------------------------------| 
  |--------------------------------------------------8--8--8--8-8-| 
  |--3--3--3--3-3----3--3--3--3-3----6--6--6--6-6----8--8--8--8-8-| 
  |--3--3--3--3-3----3--3--3--3-3----6--6--6--6-6----6--6--6--6-6-| 
  |--3--3--3--3-3----3--3--3--3-3----6--6--6--6-6-----------------| 
Tap to rate this tab
# A B C D E F G H I J K L M N O P Q R S T U V W X Y Z