Song name
# A B C D E F G H I J K L M N O P Q R S T U V W X Y Z

Orange 9mm - Gun To Your Head tab

----------------------------------------------------------------------
			   gun to your head - orange 9mm
----------------------------------------------------------------------

dropped D tuning
this is one of the first songs i learned, my brother taught it to me
theres not much to it just one main riff and a chorus

e|--------------------------------------------------------------------
B|--------------------------------------------------------------------
G|--------------------------------------------------------------------
D|-10h12-12-12-12p10-0-3-0-5-0-6-0------------------------------------
A|-10h12-12-12-12p10-0-3-0-5-0-6-0--repeat----------------------------
D|-10h12-12-12-12p10-0-3-0-5-0-6-0------------------------------------
 on the verse this is palm muted and just the top string is played

e|--------------------------------------------------------------------
B|--------------------------------------------------------------------
G|--------------------------------------------------------------------
D|-10-10-10-10-10-10-10-10-10-5-5-5-5-5-5-5-5-------------------------
A|-10-10-10-10-10-10-10-10-10-5-5-5-5-5-5-5-5-------------------------
D|-10-10-10-10-10-10-10-10-10-5-5-5-5-5-5-5-5-------------------------

 ok, thats it. have fun.
======================================================================
Tap to rate this tab
 
# A B C D E F G H I J K L M N O P Q R S T U V W X Y Z