Song name
# A B C D E F G H I J K L M N O P Q R S T U V W X Y Z

Orange And Lemons - Beginning Of Something Wonderful tab

Help us improve GuitareTab! Take a short survey!
Title: a beginning of something wonderful
Artist: Orange and Lemons

Intro: base line
       B-A-Gm-F#m	

    Note: kayo nalang bahala sa strum (gandahan nyo ha!)

e: ---7----------5----------3----------2------------|
B: ---7----------5----------3----------2------------|
G: ---8----------6----------3----------3------------|
D: ---9----------7----------5----------4------------|
A: ---9----------7----------5----------4------------|
E: ---7----------5----------3----------2------------|

Verse:

e: ---7----------5----------3----------2------------|
B: ---7----------5----------3----------2------------|
G: ---8----------6----------3----------3------------|
D: ---9----------7----------5----------4------------|
A: ---9----------7----------5----------4------------|
E: ---7----------5----------3----------2------------|

Refrain:

e: ---x----------x----------x----------x------------|
B: ---x----------x----------x----------x------------|
G: ---x----------4----------2----------3------------|
D: ---7----------4----------3----------4------------|
A: ---7----------2----------3----------4------------|
E: ---5----------x----------1----------2------------|

Chorus: 

e: ---7----------5----------3----------2------------|
B: ---7----------5----------3----------2------------|
G: ---8----------6----------3----------3------------|
D: ---9----------7----------5----------4------------|
A: ---9----------7----------5----------4------------|
E: ---7----------5----------3----------2------------|

Bridge:

e: ---x----------x----------x----------x------------|
B: ---x----------x----------x----------x------------|
G: ---9----------7----------5----------4------------|
D: ---9----------7----------5----------4------------|
A: ---7----------5----------3----------2------------|
E: ---x----------x----------x----------x------------|.........play it mga 5xs

e: ---x----------x----------x----------x---x-x---x-x----|
B: ---x----------x----------x----------x---x-x---x-x----|
G: ---9----------7----------5----------4---4-3---5-4----|
D: ---9----------7----------5----------4---4-3---5-4----|
A: ---7----------5----------3----------2---2-1---3-2----|
E: ---x----------x----------x----------x---x-x---x-x----|


kayo nalang bahala sa pagkasunodsunod......
kung may mali e-mail me,,,and please paki rate nalang....
binabate ko the ff: Vonn2x, Jv, Lowi, Jessica, Eva, Mariel, Regina,
David Salongga, Triton, Alvin......
alway remember "anything comes from nothing"...
Related for Beginning Of Something Wonderful tab