Song name
# A B C D E F G H I J K L M N O P Q R S T U V W X Y Z

Orange And Lemons - Pinoy Ako tab

------10----------10----------------10----------10---------------- 0
---10----10----10----10----------10----10----10----10------------- 0
12----------12----------(X2)--11----------11-----------(X2)------- 0 x4
------------------------------------------------------------------ 0
------------------------------------------------------------------ 0
------------------------------------------------------------------ 0

------------------------------------------ 0
-8-/-9-/-10------------------------------- 0
-8-/-9-/-10------------------------------- 0
------------------------------------------ 0
------------------------------------------ 0
------------------------------------------ 0

This is my first tab, sorry i couldnt do the whole song.
ENJOY
Tap to rate this tab
# A B C D E F G H I J K L M N O P Q R S T U V W X Y Z