Song name
# A B C D E F G H I J K L M N O P Q R S T U V W X Y Z

Orange And Lemons - Nerve tab

The song is actually tuned down a half step (Eb,Ab,Db,Gb,Bb,Eb), but since
I hate doing that and there's only two open notes in the entire thing, you
can get away with playing it in standard tuning. However, if you want to be
picky about it, just raise all the chords a half step, and move the all the
 notes in the bridge up one half step.
Verse:
|: F / Db / | Ab / Eb :|
Bridge:
|: F / Ab / | Bb / C  :|
Chorus:
|: Db / / / | Eb / / / | Db / / / | C / / / |
Fill:
                  ***
e|-----------------|------------------------------------|
B|-----------------|------------------------------------|
G|-----------------|*--------------------------0--1-----|
D|-----------------|---------------------0--1--------2--|
A|--------3-----4--|*--------------3--4-----------------|
E|--1--4-----0-----|---0--2--3--4-----------------------|
e|------------------|
B|------------------| Go back to the (***) the first few times you play the fill
G|-----------------*| before you proceed on to the solo
D|--3--------3------|
A|-----3--------4--*|
E|--------4---------|
Solo:
( ^ = bend up, ~ = vibrato, "h" = hammer on, "p" = pull off )
             ~~~~
e|-------------------------------------------|
B|--------^--^-------------------------------|
G|-----1--3--3-----3----1--0--0--1--0--------|
D|--3----------------------------------1--3--|
A|-------------------------------------------|
E|-------------------------------------------|
             ~~~~
e|---------------------------------------------------|
B|-----1--2--4--4--2--1------------^--^--1-----------|
G|--1--------------------3--1h3p1--3--3-----3--1--1--|
D|---------------------------------------------------|
A|---------------------------------------------------|
E|---------------------------------------------------|
e|-----------------------------------------|
B|-----------------------------------------| Play this part faster
G|-----1-----------------------------------|
D|--3-----3--1-----------------------------|
A|--------------3--2--1-----------------3--|
E|-----------------------4--1--0--1--4-----|
e|-----------------------------------------|
B|-----------------------------------------|
G|-----------------------------------------| Now, go back to the chorus
D|--3-----5-----6--5--6--8--8--6--10--10---|
A|-----3-----3-----------------------------|
E|-----------------------------------------|
Tap to rate this tab
# A B C D E F G H I J K L M N O P Q R S T U V W X Y Z