Guitaretab - guitar tabs
Song name
# A B C D E F G H I J K L M N O P Q R S T U V W X Y Z

Orange And Lemons - Magmahal Muli tab

Song Name   : MAGMAHAL MULI
Song Artist : SAY ALONZO & SAM MILBY
Tabbed By   : Jan Michael Dimpas
              Center for Industrial Technology & Enterprise(CITE)
 
                  Please Rate this..

            ----------------------------------
                    MAGMAHAL MULI
            ----------------------------------
              

        our band : www.bustedfuse.i8.com
        see me at my friendster janmichael_dimpas2004@yahoo.com
        i have an mp3 on this song want to have it?

Standard Tuning: EADGBE

[Intro] 

    E-Em  E-E7  A9  C#m-Bm  

e|--0000--0000--00--44\22-------|
B|--0000--0000--00--55\22-------|
G|--9988--1111--22--66\44-------|
D|--9998--2200--22--66\44-------|
A|--0000--2222--00--44\22-------|
E|--0000--0000------------------|


Verse I:

     E      c#m    A9    D  Bm
e|--0000---4444---0000---55\22-------------|
B|--0000---5555---0000---55\22-------------|  4x
G|--1111---6666---2222---77\44-------------|
D|--2222---6666---2222---77\44-------------|
A|--2222---4444---0000---55\22-------------|
E|--0000-----------------------------------|

   
Umaasang magmamahal muli
Ang buong akala ko’y siya na
Kabiguan ang napala
Paghilom ng puso’y hindi madali
Ang malamang mahal mo’y
Walang pag ibig sayo

Chorus:

     C#m     A9     E-E7   
e|---4444---0000---00000000--------|
B|---5555---0000---00000000--------|  
G|---6666---2222---11111111--------|
D|---6666---2222---22002020--------|
A|---4444---0000---22222222--------|
E|-----------------00000000--------|

Ang umasang magmahal muli, Siyang magagawa

     C#m     A9     E-E7   
e|---4444---0000---00000000--------|
B|---5555---0000---00000000--------|  
G|---6666---2222---11111111--------|
D|---6666---2222---22002020--------|
A|---4444---0000---22222222--------|
E|-----------------00000000--------|
[ Tab from: http://www.guitaretab.com/o/orange-and-lemons/65175.html ]
Huwag hanapin ang pag-ibig

   
e|---22-----2----0000----222---0000----222---00---|
B|---22----2-----0000----222---0000----222---00---|  
G|---22---2------2222----222---2222----222---22---|
D|---44--4-------2222----444---2222----444---22---|
A|---44-4--------0000----444---0000----444---00---|
E|---222-----------------222-----------222--------|

Ito’y darating, ito’y darating
Ito’y darating  sa iyo


Verse II.

     E      c#m    A9    D  Bm
e|--0000---4444---0000---55\22-------------|
B|--0000---5555---0000---55\22-------------|  4x
G|--1111---6666---2222---77\44-------------|
D|--2222---6666---2222---77\44-------------|
A|--2222---4444---0000---55\22-------------|
E|--0000-----------------------------------|
   
Hanggang sa tayo’y matuto
Sa kabiguan natamo
Kaya ako ay maghihintay  
Sa tunay kong mahal      
Isipin ang bukas  
At kalimutan ang nakalipas

Chorus:

     C#m     A9     E-E7   
e|---4444---0000---00000000--------|
B|---5555---0000---00000000--------|  
G|---6666---2222---11111111--------|
D|---6666---2222---22002020--------|
A|---4444---0000---22222222--------|
E|-----------------00000000--------|

Ang umasang magmahal muli, Siyang magagawa

     C#m     A9     E-E7   
e|---4444---0000---00000000--------|
B|---5555---0000---00000000--------|  
G|---6666---2222---11111111--------|
D|---6666---2222---22002020--------|
A|---4444---0000---22222222--------|
E|-----------------00000000--------|

Huwag hanapin ang pag-ibig

   
e|---22-----2----0000----222---0000----222---00---|
B|---22----2-----0000----222---0000----222---00---|  
G|---22---2------2222----222---2222----222---22---|
D|---44--4-------2222----444---2222----444---22---|
A|---44-4--------0000----444---0000----444---00---|
E|---222-----------------222-----------222--------|

Ito’y darating, ito’y darating
Ito’y darating  sa iyo


Please Rate! thanks.

Related for Magmahal Muli tab
Advertisement will be closed in 10 seconds