Song name
# A B C D E F G H I J K L M N O P Q R S T U V W X Y Z

Orange And Lemons - Chatters Tale tab

this tab 100% correct because it came from a ™bicolano™......
e)--------------------------------------------------|
B)----7--8-7-----------------7-8-10-12-10-8-7h8p7---|
G)-------------9--6h7--6-7-9------------------------|
D)--9----------------9------------------------------|
A)--------------------------------------------------|
E)--------------------------------------------------|

e)---------7^---------------------------------------------10-10-9-7-9-6-7-|
B)--7-8-10----7h8-8-7-7h8p7---------------8---7h8p7--7-8------------------|
G)--------------------------9--6h7p6--7-9---9-----------------------------|
D)----------------------------9-------------------------------------------|
A)------------------------------------------------------------------------|
E)------------------------------------------------------------------------|

IF there are errors... pls contact (09163443715)ditto alvarez
Tap to rate this tab
# A B C D E F G H I J K L M N O P Q R S T U V W X Y Z