Song name
# A B C D E F G H I J K L M N O P Q R S T U V W X Y Z

Orange Goblin - Getting High On The Bad Times tab

Orange Goblin - Getting High On The Bad Times

Coup de Grace

Mathew Holland

Ignore the tuning on the tablature, it should be ONE STEP DOWN to D standard. I will add 
ret when I have time, here is a start anyhow. enjoy!

(/) Slide Up  (\) Slide Down  (h) Hammer On  (p) Pull Off  (b) Bend (r) Release (v) Vibrato

Riff 1

D|--------------------------------------|
A|--------------------------------------|
F|--------------------------------------|
C|--------------------------------------|
G|--------------------------------------|
D|--0--0--3p0--3p0--0--3p0--0--1--2--3--|

Riff 2

E|-----------------------------------------|
B|-----------------------------------------|
G|-----------------------------------------|
D|-----------------------------------------|
A|-----------------------------------------|
E|--0--0--3p0--3p0--0--3p0--0--6--5--3--5--|

Riff 3

E|--------------------------------------------------|
B|--------------------------------------------------|
G|--------------------------------------------------|
D|--------------------------------------------------|
A|--------5--7--------3--5--------------------------|
E|--0--0--------0--0--------0--0--5--6--5--0--3--5--|

E|-------------------------|
B|-------------------------|
G|-------------------------|
D|-------------------------|
A|--5--------8--------8-7--|
E|--3--0--0--6--0--0--6\5--|

Riff 4

E|------------------------------|
B|------------------------------|
G|------------------------------|
D|--2--2--2--2------5--5--5--5--|
A|--2--2--2--2------5--5--5--5--|
E|--0--0--0--0-x3---3--3--3--3--|

E|-------------------------------|
B|-------------------------------|
G|-------------------------------|
D|--7--7--7--7-----5--5--5--5----|
A|--7--7--7--7-----5--5--5--5----|
E|--5--5--5--5-x3--3--3--3--3----|


Riff 1 x5

Riff 2 x1

Riff 1 x3

Riff 2 x1

Riff 3 x3

Riff 1 x3

Riff 2 x1

Riff 1 x3

Riff 2 x1

Riff 3 x3

Riff 4 x4
Tap to rate this tab
# A B C D E F G H I J K L M N O P Q R S T U V W X Y Z