Song name
# A B C D E F G H I J K L M N O P Q R S T U V W X Y Z

Orange Goblin - Beginners Guide To Suicide tab

Beginner's Guide To Suicide by Orange Goblin
Drop D Tuning

dbr = downwards bend then release
bh = bend and hold

e--------------------------------------------------------------------------|
B--------------------------------------------------------------------------|
G-----5/20\5------5/7/20\5------5/20\5-5/15-7-5---------5/20\5----5/20\5---|
D---0-----------0-------------0-----------------5-3------------------------|
A--------------------------------------------------------------------------|
D-0-----------0-------------0-----------------------0--0--------0----------|

e-------------------------|
B-------------------------|
G---5/20\5-5/15-7-5-------|
D-------------------5-3-0-|
A-------------------------|
D-0---------------------0-|

e-----------------------------------------------------------------------|
B-------------------------15\13-----------------------------------------|
G-17dbr----12-12-12-12/14-------12/14-------17b-17b-17-17bh--15\5-5/7~--|
D-------17----------------------------5\3p0-----------------------------|
A-----------------------------------------------------------------------|
D-----------------------------------------------------------------------|

e--------------------------------------------------------------------------|
B--------------------------------------------------------------------------|
G13/15-15-15--12/14\11--5/7-7------------17b-17bh----12/14-14-14----17dbr--|
D-----------------------------5\3-0---12----------12-------------12------15|
A--------------------------------------------------------------------------|
D---------------------------------0----------------------------------------|

e---------------------|
B---------------------|
G-17\5-5-5/7\5--------|
D--------------5\3p0--|
A---------------------|
D------------------0--|

1:36
e------------------------------------------------------------------------|
B------------------------------------------------------------------------|
G-12-14-12-9--12-14-12----12-12b----12--------------12-------12b---------|
D----------------------14--------14----14--12-14p12----12h14-----14------|
A------------------------------------------------------------------------|
D------------------------------------------------------------------------|

e--------------------|
B--------------------|
G--------------------|
D-10~-11~-12~--------|
A--------------------|
D--------------------|

GUITAR 2 DURING ABOVE
e-----------------------|
B-----------------------|
G-5/18\5-5/18\5-5/18\5--| repeat lots
D-----------------------|
A-----------------------|
D-----------------------|

2:18
e---------------------------------------------------|
B---------------------------------------------------|
G---------------------------------------------------| play twice
D---------------------------------------------------|
A-0-0-3-5-3-0--0-3-5-3-0--0-3-5-7-10-10-10-10-5-3-0-|
D-0-0-3-5-3-0--0-3-5-3-0--0-3-5-7-10-10-10-10-5-3-0-|

CHORUS
e---------------------------------|
B---------------------------------|
G---------------------------------| play 4 times
D---------------------------------|
A-12-12-10-15-10-12--7-7-5-10-5-7-|
D-12-12-10-15-10-12--7-7-5-10-5-7-|


e---------------------------------------------------|
B---------------------------------------------------|
G---------------------------------------------------| play twice
D---------------------------------------------------|
A-0-0-3-5-3-0--0-3-5-3-0--0-3-5-7-10-10-10-10-5-3-0-|
D-0-0-3-5-3-0--0-3-5-3-0--0-3-5-7-10-10-10-10-5-3-0-|

e---------------------------------------------------|
B---------------------------------------------------|
G---------------------------------------------------| play 4 times
D---------------------------------------------------|
A-12-12-12-10-10-10-15-15-10-8-8h10p8-5-5-5-4-4-4-0-|
D-12-12-12-10-10-10-15-15-10-8-8h10p8-5-5-5-4-4-4-0-|

SOLO

6:49
e---------------------------------------------------|
B---------------------------------------------------|
G---------------------------------------------------| play 3 times
D---------------------------------------------------|
A-12-12-12-10-10-10-15-15-10-8-8h10p8-5-5-5-4-4-4-0-|
D-12-12-12-10-10-10-15-15-10-8-8h10p8-5-5-5-4-4-4-0-|

Tabbed by Ben Shutt
Any corrections please comment
Thanks
Tap to rate this tab
 
# A B C D E F G H I J K L M N O P Q R S T U V W X Y Z