Song name
# A B C D E F G H I J K L M N O P Q R S T U V W X Y Z

Orange Goblin - Orange Goblin tab

Tuning 1 step down DGCFAD

d|----------------------------------------|
A|----------------------------------------|
F|----------------------------------------| 2x, then guitar 2 comes in
C|--7/9--15--14---12---12-12-12-12--12/10-|
G|--5/7--13--12---10---10-10-10-10--10/8--|
D|-----0---0---0-0------------------------|
  Pm   .   .   ...     ...........

(If you don't know how to tune your guitar 1 step down you could play it in standard 
like this:)


e|----------------------------------------|
B|----------------------------------------|
G|----------------------------------------|
D|--5/7--13--12---10---10-10-10-10--10/8--|
A|--3/5--11--10---8----8--8--8--8---8-/6--|
E|-----0---0---0-0------------------------|
  Pm   .   .   ...     ...........
Tap to rate this tab
 
# A B C D E F G H I J K L M N O P Q R S T U V W X Y Z