Song name
# A B C D E F G H I J K L M N O P Q R S T U V W X Y Z

Orange Goblin - Scorpionica tab

((NO SOLO))
Tunning: DGCFAD

' Sorry for any mistakes '

Prt 1 - after feedback section
-------------------------------|
-------------------------------|
-------------------------------|
-------------------------------|
-------------------------------|
--0-0-0h10-10h12-10h12-12-12---|

Prt 2 - when signing starts

-------------------------------|
-------------------------------|
-------------------------------|
--------------9-99-/-7-77------|
-2------------9-99-/-7-77------|
-0-00-00-00-0-7-77-/-5-55------|

Prt 1

Prt 2

Prt 3 - when solo starts - CLEAN
---------------------------------|
---------------------------------|
---------------------------------|
---------------------------------|
-2-(2)------------------------2--|
-0-(0)--0-3-333 / 7-7-0--1-11-0--|


Prt 4  - during solo - DISTORTED
--------------------------------|
--------------------------------|
--------------------------------|
--------------------------------|
-2-(2)----5-555---9-9---3-33-2--|
-0-(0)--0-3-333 / 7-7-0-1-11-0--|

-----------------------------------------|
-----------------------------------------|
-----------------------------------------|
----------------15-15V--12----12---------|
-2----15-12-15-------------15----15------|
-0--0------------------------------------|

Prt4

Prt1

END
Tap to rate this tab
 
# A B C D E F G H I J K L M N O P Q R S T U V W X Y Z