Song name
# A B C D E F G H I J K L M N O P Q R S T U V W X Y Z

Orange Goblin - Rage Of Angels tab

-----------------------------------------------------------------------------
                          Orange Goblin - Rage of Angels
-----------------------------------------------------------------------------
fluff8@gmail.com

Tuning: Tune down 1 step (DGCFAD)

Intro
----------------------| x3 
----------------------|
----------------------|
----------------------|
----------------------|
--0---------------3-5-|

----------------------| 
----------------------|
----------------------|
----------------------|
----------------------|
--0-------------------|

Main riff

-------------------------------|
-------------------------------|
-------------------------------|
-------------------------------|
--7-------------------5----5-7-|
----5-6-5--3-5-3--0-3----3-----|

Riff 2

---------------------------------|---------------------------------|
---------------------------------|---------------------------------|
---------------------------------|---------------------------------|
------------------------------5--|---------------------------------|
---------------------------------|----------------------3-4-4-3----|
--6-3-3-6-3-3-6-3-6-3-3-6-3-3----|--6-3-3-6-3-3-6-3-6-3---------6--|

Riff 3
                                           pm-------
--------------------------|--------------------------|
--------------------------|--------------------------|
--------------------------|--------------------------|
--------------3-----------|--------------------------|
--3--5--5--5--------------|-----------------3--3--3--|
------------------3b------|--1--3--1--------1--1--1--|
                                           
--------------------------|
--------------------------|
--------------------------|
--5--7--7--7--5--7--7--7--|
--3--5--5--5--3--5--5--5--|
--------------------------|

Outro

----------------------|
----------------------|
----------------------|
----------------------|
--2----2----2----2----|
--0----0----0----0----|

Tap to rate this tab
 
# A B C D E F G H I J K L M N O P Q R S T U V W X Y Z