Song name
# A B C D E F G H I J K L M N O P Q R S T U V W X Y Z

Orange Goblin - Red Tide Rising tab

Song: Red Tide Rising
Artist: Orange Goblin
Album: A Eulogy For The Damned
Tuning: Drop C (Ignore the drop D at the Side)

This is the Intro for Now, hopefully it'll get you started, I'll put up the full 
thing when I get time to finish it :)
Any problems email me at hoops-97@live.com.au

E|
B|
G|
D|
A|
D|


Intro:
Guitar 1:
Play this one chord for the whole Intro, listen to the recording for the strum pattern
E|---|
B|---|
G|---|
D|-2-|
A|-2-|
D|-2-|

Guitar 2:
After 2 Bars of Guitar 2:
E|--------------------------------------|
B|--------------------------------------|
G|--------------------------------------|
D|-14---14-14-14-14-14---14-14-14-14-14-|
A|-14---14-14-14-14-14---14-14-14-14-14-|
D|-14---14-14-14-14-14---14-14-14-14-14-|x4


E|--------------------------------------|
B|--------------------------------------|
G|--------------------------------------|
D|-14---14-14-14-14-14---14-14-14-14-14-|
A|-14---14-14-14-14-14---14-14-14-14-14-|
D|-14---14-14-14-14-14---14-14-14-14-14-|

E|--------------------------------------|
B|--------------------------------------|
G|--------------------------------------|
D|-16---16-16-16-16-16---16-16-16-16-16-|
A|-16---16-16-16-16-16---16-16-16-16-16-|
D|-16---16-16-16-16-16---16-16-16-16-16-|

E|--------------------------------------|
B|--------------------------------------|
G|--------------------------------------|
D|-17---17-17-17-17-17---17-17-17-17-17-|
A|-17---17-17-17-17-17---17-17-17-17-17-|
D|-17---17-17-17-17-17---17-17-17-17-17-|

E|--------------------------------------|
B|--------------------------------------|
G|--------------------------------------|
D|-19---19-19-19-19-19---21-21-21-21-21-|
A|-19---19-19-19-19-19---21-21-21-21-21-|
D|-19---19-19-19-19-19---21-21-21-21-21-|


E|--------------------------------------|
B|--------------------------------------|
G|--------------------------------------|
D|-21---21-21-21-21-21---21-21-21-21-21-|
A|-19---19-19-19-19-19---19-19-19-19-19-|
D|--------------------------------------|

E|--------------------------------------|
B|--------------------------------------|
G|--------------------------------------|
D|-19---19-19-19-19-19---20-20-20-20-20-|
A|-17---17-17-17-17-17---20-20-20-20-20-|
D|-----------------------20-20-20-20-20-|

E|--------------------------------------|
B|--------------------------------------|
G|--------------------------------------|
D|-21---21-21-21-21-21---21-21-21-21-21-|
A|-21---21-21-21-21-21---21-21-21-21-21-|
D|-21---21-21-21-21-21---21-21-21-21-21-|

E|--------------------------|
B|--------------------------|
G|--------------------------|
D|--19--17--16--17--16--14--|
A|--19--17--16--17--16--14--|
D|--19--17--16--17--16--14--|


THE MAIN RIFF: 

E|-----------------------------------|
B|-----------------------------------|
G|-----------------------------------|
D|------------2--2----2-4-------2----|
A|--------2-5-------5-----5--55---2--|
D|-2--2-5----------------------------|


Finish Intro:

E|---|
B|---|
G|---|
D|-2-|
A|-2-|
D|-2-|
Tap to rate this tab
# A B C D E F G H I J K L M N O P Q R S T U V W X Y Z