Guitaretab - guitar tabs
Song name
# A B C D E F G H I J K L M N O P Q R S T U V W X Y Z

Orange Goblin - You Know Your World Will Hate This tab

                   Song: You Know Your World Will Hate This
                   Atrist: Orange Goblin
                   Tabbed By: Chris Povey (metallica-best@hotmail.co.uk)
[ Tab from: http://www.guitaretab.com/o/orange-goblin/94275.html ]
FUCK..........
e-----------------------------------------|
b-----------------------------------------|
g-----------------------------------------|
d-----------------------------------------|
a-----------------------------------------|
D-0-0-3-0-3-0-0-3-0-3-0-0-3-0-3-0-0-3-0-3-|

We Know that your world will hate this...

e----------------------------------------------|
b----------------------------------------------|
g----------------------------------------------|
d--3/666-5-3-3---------------------3/666-3-3-3-|
a--3/666-5-3-3---------------------3/666-5-3-3-|
D--3/666-5-3-3-0-0-3-0-3-0-0-3-0-3-3/666-5-3-3-|


Repeat this to get full song
Related for You Know Your World Will Hate This tab
×
Best way to learn
"You Know Your World Will Hate This"