Song name
# A B C D E F G H I J K L M N O P Q R S T U V W X Y Z

Orange Juice - Falling And Laughing tab

this is just the ending of falling and laughing where it leads into the final outro


e ----3--5--10---9-----|
b------6-------11--10--|
g ---------------------|
d--5-------------------|
a----------------------|
E----------------------|


e ----3--5---------------|
b------6----10-10-9--10--|
g ----------11-11-10-11--|
d--5--------12-12-11-12--|
a------------------------|
E------------------------|

This repeated altnating between the two until the end.
Tap to rate this tab
 
# A B C D E F G H I J K L M N O P Q R S T U V W X Y Z