Song name
# A B C D E F G H I J K L M N O P Q R S T U V W X Y Z

Orange Juice - Falling And Laughing tab

tabbed by barky60

Chords:

Em: xx9987
D:  xxx232
D/G:xxx233
Bm: xx9777
A:  xx7655
G:  xx5433


Intro:

           x5                   x2
e|-----------------------||--2-3--3-2--||
B|-----------------------||--3-3--3-3--||
G|-----------------------||--2-2--2-2--||
D|----2--------5------7--||------------||
A|-----------------------||------------||
E|--0---0---3------5-----||------------||

/The second guitar plays this chord repeatedly during the first 5 bars of the intro/

e|-12-||
B|-12-||
G|-12-||
D|-14-||
A|-xx-||
E|-xx-||

Verse:

Em
You may think me very naive

             D       D/G        D/G         D
Taken as true, I only see what I want to see

Em
Avoid eye contact at all costs

             D       D/G        D/G         D
What can I do, To see your fine teeth smiling at me

Chorus:

Bm
I'm not saying
                Em                  A
That we should build a city of tears

Bm
All I'm saying
         Em            A
Is I'm alone and consequently

Only my tears satisfy the real need of my heart, I resist
e|----------------------------------------------|
B|----3------5-------10--------9-------8~~------|
G|--4---4--6---6--11----11--10---10--9----------|
D|----------------------------------------------|
A|----------------------------------------------|
E|----------------------------------------------|

Em
You say that there's a thousand like you
              D       D/G      D/G            D
Maybe that's true, I fell or you and nobody else

Em
So I'm standing here so lonely
           D        D/G        D/G         D
What can i do, But learn to laugh at myself

Bm
I'm not saying
            Em                   A 
That we should build a city of tears
Bm
All I'm saying
           Em          A
Is I'm alone and consequently

Only my tears satisfy the real need of my heart, I resist
e|----------------------------------------------|
B|----3------5-------10--------9-------8~~------|
G|--4---4--6---6--11----11--10---10--9----------|
D|----------------------------------------------|
A|----------------------------------------------|
E|----------------------------------------------|

(Not to sure what the exact solo is but improvise using D and D/G and use these when needed)

e|----5----3----2----0-||----5---3----7----9---|
B|---------------------||----------------------|
G|--6----4----2----0---||--6---4----7----9-----|
D|---------------------||----------------------|
A|---------------------||----------------------|
E|---------------------||----------------------|

Bm
I'm not saying
            Em                   A 
That we should build a city of tears
Bm
All I'm saying
           Em          A~~~
Is I'm alone and consequently

e|---------------------------------------|
B|----3------5-------10--------9----10---|
G|--4---4--6---6--11----11--10---11------|
D|---------------------------------------|
A|---------------------------------------|
E|---------------------------------------|


G       A             D
Fall falling falling again
G       A             D
Cos I want to take the pleasure with the pa-in
G       A             D
Fall falling - falling again
G       A             D
Cos I wan to take
G       A             D
The pleasure with the pain pain pain pain pain pain pa-pa-pa-pa-pa-pa-pa-in
Falling and laughing
Falling and laughing
Falling and laughing
Falling and laugh - ing
Tap to rate this tab
 
# A B C D E F G H I J K L M N O P Q R S T U V W X Y Z