Song name
# A B C D E F G H I J K L M N O P Q R S T U V W X Y Z

Orange Juice - Falling And Laughing tab

Artist/Band: Orange Juice
Song: "Falling and Laughing"
Album: You Can't Hide Your Love Forever

This is a sort of hybrid between the LP version and radio session version
 from the bonus tracks of the Ostrich Churchyard CD.


standard tuning

Guitar I
INTRO RIFF
e--------------------------------|
B--------------------------------|
G--------------------------------|
D-------------2-------5-------7--|
A--------/3----------------------|
E-0---------------3-------5------|

Guitar II
INTRO CHORDS
fade in / volume swell
e-15--15--15--15--15--15--15--15-|
B-12--12--12--12--12--12--12--12-|
G-12--12--12--12--12--12--12--12-|
D-12--12--12--12--12--12--12--12-|
A--------------------------------|
E--------------------------------|

Guitar I + II
VERSE RIFF I
  Dmaj7       D                    D           Dmaj7
e-2-----------2--------------------2-----------2-----------------|
B-2-----------3--------------------3-----------2-----------------|
G-2-----------2--------------------2-----------2-----------------|
D-0-----------0--------------------0-----------0-----------------|
A----------------------------------------------------------------|
E----------------------------------------------------------------|

Guitar I
VERSE RIFF II
e-15--------15----17--17--15------15-----15------17---17--15-----|
B--16-------16----16--16--16------16-----16------16---16--16-----|
G---17------17----17--17--17------17-----17------17---17--17-----|
D----17-----17----17--17--17------17-----17------17---17--17-----|
A----------------------------------------------------------------|
E----------------------------------------------------------------|

Guitar II
VERSE RIFF II
e-15----15----15----15----15------15----15----15----15----15-----|
B-12----12----12----12----12------12----12----12----12----12-----|
G-12----12----12----12----12------12----12----12----12----12-----|
D-12----12----12----12----12------12----12----12----12----12-----|
A----------------------------------------------------------------|
E----------------------------------------------------------------|

Guitar I
PRE CHORUS RIFF
e-7-----7-----7-----7-----7-------7-----7-----10----10----7------|
B-7-----7-----7-----7-----7-------8-----8-----8-----8-----8------|
G-7-----7-----7-----7-----7-------7-----7-----7-----7-----7------|
D-9-----9-----9-----9-----9-------9-----9-----9-----9-----9------|
A----------------------------------------------------------------|
E----------------------------------------------------------------|

e-5-----5-----5-----5-----5-------5-----5-----5-----5-----5------|
B-5-----5-----7-----7-----5-------5-----5-----7-----7-----5------|
G-6-----6-----6-----6-----6-------6-----6-----6-----6-----6------|
D-7-----7-----7-----7-----7-------7-----7-----7-----7-----7------|
A----------------------------------------------------------------|
E----------------------------------------------------------------|

Guitar II
PRE CHORUS RIFF
  let ring                        let ring
e-7-------------------------------7------------------------------|
B-7-------------------------------8------------------------------|
G-7-------------------------------7------------------------------|
D-9-------------------------------9------------------------------|
A----------------------------------------------------------------|
E----------------------------------------------------------------|
cont.
e-0---------------2---------------0---------------2--------------|
B-2---------------2---------------2---------------2--------------|
G(2)------2------(2)------2------(2)------2------(2)------2------|
D---------2---------------2---------------2---------------2------|
A---------0---------------0---------------0---------------0------|
E----------------------------------------------------------------|

Guitar III
PRE CHORUS FILL (Play on second half of Pre Chorus)
e-17------17------17------17------17------17------17------17-----|
B----------------------------------------------------------------|
G-14------14------14------14------14------14------14------14-----|
D----------------------------------------------------------------|
A----------------------------------------------------------------|
E----------------------------------------------------------------|

Guitar II
CHORUS RIFF
e----------------------------------------------------------------|
B----------------------------------------------------------------|
G---------------7-------------------------------9----------------|
D-9------------------------9----/11-----------------------11-----|
A----------------------------------------------------------------|
E----------------------------------------------------------------|
cont.
e----------------------------------------------------------------|
B----------------------------------------------------------------|
G---------------14------------------------------13---------------|
D/16-----------------------16----15-----------------------15-----|
A----------------------------------------------------------------|
E----------------------------------------------------------------|
cont.
e----------------------------------------------------------------|
B----------------------------------------------------------------|
G---------------12--------(12)\----------------------------------|
D-14-------------------------------------------------------------|
A----------------------------------------------------------------|
E----------------------------------------------------------------|
cont.
e----------------------------------------------------------------|
B----------------------------------------------------------------|
G----------------------------------------------------------------|
D-12----------------------(12)\----------------------------------|
A----------------------------------------------------------------|
E----------------------------------------------------------------|

Guitar II
CHORUS RIFF
e-7-------------7---------7-------3-------------3---------3------|
B-8-------------8---------8-------3-------------3---------3------|
G-7-------------7---------7-------4-------------4---------4------|
D-9-------------9---------9-------5-------------5---------5------|
A----------------------------------------------------------------|
E----------------------------------------------------------------|
cont.
e----------------------------------------------------------------|
B-7-------------7---------7-------9-------------9---------9------|
G-7-------------7---------7-------9-------------9---------9------|
D-7-------------7---------7-------9-------------9---------9------|
A-5-------------5---------5-------7-------------7---------7------|
E----------------------------------------------------------------|
cont.
e----------------------------------------------------------------|
B-8--------------------------------------------------------------|
G-9--------------------------------------------------------------|
D-9--------------------------------------------------------------|
A-7--------------------------------------------------------------|
E----------------------------------------------------------------|
cont.
        piano arranged for guitar
e-------10----10--10----------10--10----10----10--10----------10-|
B-7--------------------------------------------------------------|
G-7--------------------------------------------------------------|
D-7--------------------------------------------------------------|
A----------------------------------------------------------------|
E----------------------------------------------------------------|

Guitar I
BRIDGE RIFF
e--------------2------------------------(0)--0-----------0-------|
B-3------------------3-----------------0-----------0-----------0-|
G-0-----0----------------------------0---------------------------|
D-0------------------------2-------2-----------------------------|
A----------------------------------------------------------------|
E----------------------------------------------------------------|
cont.
e-------2------0-----2---------5---------3---------2---------0---|
B-3-----3------3-----3-------------------------------------------|
G-2-----------------------/6---------4---------2---------0-------|
D-0--------------------------------------------------------------|
A----------------------------------------------------------------|
E----------------------------------------------------------------|
cont.
e--------------2------------------------(0)--0-----------0-------|
B-3------------------3-----------------0-----------0-----------0-|
G-0-----0----------------------------0---------------------------|
D-0------------------------2-------2-----------------------------|
A----------------------------------------------------------------|
E----------------------------------------------------------------|
cont.
e-------2------0-----2---------5---------3---------7---------9---|
B-3-----3------3-----3-------------------------------------------|
G-2-----------------------/6---------4--------/7--------/9-------|
D-0--------------------------------------------------------------|
A----------------------------------------------------------------|
E----------------------------------------------------------------|

Guitar II
BRIDGE RIFF
e----------------------------------------------------------------|
B----------------------------------------------------------------|
G--------------4-----------------------------2-----------2-------|
D-5-----5------------5-----2-----------2-----------2-----------2-|
A----------------------------------------------------------------|
E----------------------------------------------------------------|
cont.
e-------2------------2-------------------------------------------|
B-------3------------3------------3------------3-----------------|
G-------2------------2------------2------------2-----------------|
D-0--------------------------------------------------------------|
A----------------------------------------------------------------|
E----------------------------------------------------------------|

Guitar I
OUTRO RIFF
e----------------------------------------------------------------|
B----------------------------------------------------------------|
G--------7----------9----------------14---------13---------14----|
D-9----------9-/11------11----/16--------16\15------15/16--------|
A----------------------------------------------------------------|
E----------------------------------------------------------------|

Guitar II
OUTRO RIFF
e-------3-------------------2------2------1---------2--2---------|
B-------3-------------------3------3------2---------3--3---------|
G-0-----0-----2--2----------2------2------1---------2--2---------|
D-0-----0-----2--2----------0------0------0---------0--0---------|
A-2--------------------------------------------------------------|
E-3--------------------------------------------------------------|





That's it. Listen and play along to the song for the order and number of measures.
 Please feel free to leave any comments, corrections, questions, or requests.
 Cheers!

-Bennyshambles78-
Tap to rate this tab
# A B C D E F G H I J K L M N O P Q R S T U V W X Y Z