Song name
# A B C D E F G H I J K L M N O P Q R S T U V W X Y Z

Orange Range - Viva Rock tab

Viva Rock
As made famous by Orange Range
As played by Androiddab
Tabbed by Saiaikenja

Standard tuning

Opening
e-------------------------------------------------------------------------------|
b-------------------------------------------------------------------------------|
g-------------------------------------------------------------------------------|
d-------------5----5--6----7--7--7--7--11---11-9---9--7----7--------------------|
a---7---7-----7----7--5----5--5--5--5--9----9--7---7--5----5(x10)*--------------|
E-/5---5------------------------------------------------------------------------|
* Palm mute but start to let off towards the end until its clear at the very end.

Verse Riff    Play through this twice for opening verse riff
e--------------------------------------------------------------------------------|
b--------------------------------------------------------------------------------|
g--------------------------------------------------------------------------------|
d---------------------------------------------4----2-----------------------------|
a--4----4--4--4--4----4--4--4--4-----4--4--4--2----0-----------------------------|
E--2----2--2--2--2----2--2--2--2-----2--2--2-------------------------------------|
        P.M.---       P.M.---        P.M.----------------------------------------|
e--------------------------------------------------------------------------------|
b--------------------------------------------------------------------------------|
g--------------------------------------------------------------------------------|
d-------------------------------------------------------11-----11-----11---------|
a--4----4--4--4--4----4--4--4--4-----4--4--4--2----3----9-(x4)-9-(x4)-9-(x10)----|
E--2----2--2--2--2----2--2--2--2-----2--2--2--0----1-----------------------------|
        P.M.---       P.M.---        P.M.----------------------------------------|
Verse 1
e--------------------------------------------------------------------------------|
b--------------------------------------------------------------------------------|
g--------------------------------------------------------------------------------|
d---------------------------------------------4----2-----------------------------|
a--4----4--4--4--4----4--4--4--4-----4--4--4--2----0-----------------------------|
E--2----2--2--2--2----2--2--2--2-----2--2--2-------------------------------------|
        P.M.---       P.M.---        P.M.----------------------------------------|
e--------------------------------------------------------------------------------|
b--------------------------------------------------------------------------------|
g--------------------------------------------------------------------------------|
d--------------------------------------------------------------------------------|
a--4----4--4--4--4----4--4--4--4-----4--4--4--2----3-----------------------------|
E--2----2--2--2--2----2--2--2--2-----2--2--2--0----1-----------------------------|
        P.M.---       P.M.---        P.M.----------------------------------------|

e--------------------------------------------------------------------------------|
b--------------------------------------------------------------------------------|
g--------------------------------------------------------------------------------|
d---------------------------------------------4----2-----------------------------|
a--4----4--4--4--4----4--4--4--4-----4--4--4--2----0-----------------------------|
E--2----2--2--2--2----2--2--2--2-----2--2--2-------------------------------------|
        P.M.---       P.M.---        P.M.----------------------------------------|
e--------------------------------------------------------------------------------|
b--------------------------------------------------------------------------------|
g--------------------------------------------------------------------------------|
d--------------------------------------------------------------------------------|
a--4----4--4--4--4----4--4--4--4-----4--4--4-------------------------------------|
E--2----2--2--2--2----2--2--2--2-----2--2--2-------------------------------------|
             P.M.--          P.M.--            P.M.------------------------------|
Chorus   Play through this twice for full chorus
e-------------------------------------------------------------------------------|
b-------------------------------------------------------------------------------|
g-------------------------------------------------------------------------------|
d-------------9---------7--------11-------7--------7----------------------------|
a--7----------7(x6)----5(x12)----9(x6)----9(x6)----5(x6)----2--2----4-----------|
E--5(x6)----------------------------------------------------0--0----0-----------|

Pre verse Riff
e--------------------------------------------------------------------------------|
b--------------------------------------------------------------------------------|
g--------------------------------------------------------------------------------|
d---------------------------------------------4----2-----------------------------|
a--4----4--4--4--4----4--4--4--4-----4--4--4--2----0-----------------------------|
E--2----2--2--2--2----2--2--2--2-----2--2--2-------------------------------------|
        P.M.---       P.M.---        P.M.----------------------------------------|
e--------------------------------------------------------------------------------|
b--------------------------------------------------------------------------------|
g--------------------------------------------------------------------------------|
d--------------------------------------------------------------------------------|
a--4----4--4--4--4----4--4--4--4-----4--4--4-------------------------------------|
E--2----2--2--2--2----2--2--2--2-----2--2--2-------------------------------------|
        P.M.---       P.M.---        P.M.----------------------------------------|
Verse 2
e--------------------------------------------------------------------------------|
b--------------------------------------------------------------------------------|
g--------------------------------------------------------------------------------|
d---------------------------------------------4----2-----------------------------|
a--4----4--4--4--4----4--4--4--4-----4--4--4--2----0-----------------------------|
E--2----2--2--2--2----2--2--2--2-----2--2--2-------------------------------------|
        P.M.---       P.M.---        P.M.----------------------------------------|
e--------------------------------------------------------------------------------|
b--------------------------------------------------------------------------------|
g--------------------------------------------------------------------------------|
d--------------------------------------------------------------------------------|
a--4----4--4--4--4----4--4--4--4-----4--4--4--2----3-----------------------------|
E--2----2--2--2--2----2--2--2--2-----2--2--2--0----1-----------------------------|
        P.M.---       P.M.---        P.M.----------------------------------------|

e--------------------------------------------------------------------------------|
b--------------------------------------------------------------------------------|
g--------------------------------------------------------------------------------|
d---------------------------------------------4----2-----------------------------|
a--4----4--4--4--4----4--4--4--4-----4--4--4--2----0-----------------------------|
E--2----2--2--2--2----2--2--2--2-----2--2--2-------------------------------------|
        P.M.---       P.M.---        P.M.----------------------------------------|
e--------------------------------------------------------------------------------|
b--------------------------------------------------------------------------------|
g--------------------------------------------------------------------------------|
d--------------------------------------------------------------------------------|
a--4----4--4--4--4----4--4--4--4-----4--4--4-------------------------------------|
E--2----2--2--2--2----2--2--2--2-----2--2--2-------------------------------------|
        P.M.---       P.M.---        P.M.----------------------------------------|
Chorus   Play through this twice for full chorus
e-------------------------------------------------------------------------------|
b-------------------------------------------------------------------------------|
g-------------------------------------------------------------------------------|
d-------------9---------7--------11-------7--------7----------------------------|
a--7----------7(x6)----5(x12)----9(x6)----9(x6)----5(x6)----2--2----4-----------|
E--5(x6)----------------------------------------------------0--0----0-----------|

Interlude You could play the verse riff until interlude end for rhythm but i dont know
the actual tab for it is...
Continuing on...

e-------------------------------------------------------------------------------|
b-------------------------------------------------------------------------------|
g-------------------------------------------------------------------------------|
d--11-------11------11-----------------9----9--7----7--7--7--7------------------|
a--9-(x4)---9-(x4)--9-(12)*----7----7--7----7--5----5--5--5--5------------------|
E------------------------------5----5-------------------------------------------|


e-------------------------------------------------------------------------------|
b-------------------------------------------------------------------------------|
g-------------------------------------------------------------------------------|
d-11---11--9----9--7----7-------------------------------------------------------|
a-9----9---7----7--5----5-(x10)-------------------------------------------------|
E-------------------------------------------------------------------------------|

Chorus   Play through this twice for full chorus
e-------------------------------------------------------------------------------|
b-------------------------------------------------------------------------------|
g-------------------------------------------------------------------------------|
d-------------9---------7--------11-------7--------7----------------------------|
a--7----------7(x6)----5(x12)----9(x6)----9(x6)----5(x6)----2--2----4-----------|
E--5(x6)----------------------------------------------------0--0----0-----------|

Outro start      play twice
e-------------------------------------------------------------------------------------------|
b-------------------------------------------------------------------------------------------|
g-------------------------------------------------------------------------------------------|
d--11-11---11-11-11---11-9--9----9--9--9----9--7--7-----7--7--7----7--4--4----4--4--4----4--|
a--9--9----9--9--9----9--7--7----7--7--7----7--5--5-----5--5--5----5--2--2----2--2--2----2--|
E-------------------------------------------------------------------------------------------|

Grand Finale     play four times
e-------------------------------------------------------------------------------|
b-------------------------------------------------------------------------------|
g-------------------------------------------------------------------------------|
d--11------11------11-----------------------------------------------------------|
a--9-(x4)--9-(x4)--9-(x10)------------------------------------------------------|
E-------------------------------------------------------------------------------|

Legend

\ - slide down to the note
P.M. - palm mute the above notes/chords
(x#) - Strum the note/chord this many times, some of the rhythms you'll have to listen 
the song for

Not sure what scale he uses for the 9/11 power chord x10,  he moves too fast for the camera.
Some of the parenthesized numbers might be off but I'm pretty sure of them
The rest of it should be correct but if not feel free to let me know whats up in the 
section.
Tap to rate this tab
 
# A B C D E F G H I J K L M N O P Q R S T U V W X Y Z