Guitaretab - guitar tabs
Song name
# A B C D E F G H I J K L M N O P Q R S T U V W X Y Z

Orange Range - Ikenai Taiyou tab

Ikenai Taiyou by Orange Range


Tabbed by renzoku a.k.a valensi00
renzouku@gmail.com


This ver.2 is more accurate than the previous ver. since i tabbed using my elecetric guitar.
The previous ver. i tabbed it using unplugged electric guitar cuz i dont have my amp 
me at that timeSo, enjoy!!!

TUNING = Standard


Intro:

Rythm

     Em                C          D           Em
E|-------------------------------------------------------------|
B|---7-8h--8-8-x-8-----5-5-x-5----7-7-x-7-----8-8-x-8----------|
G|---7-----7-7-x-7-----5-5-x-5----7-7-x-7-----7-7-x-7----------|
D|---7-9h--9-9-x-9-----5-5-x-5----7-7-x-7-----9-9-x-9----------|
A|---7-----7-7-x-7-----3-3-x-3----5-5-x-5-----7-7-x-7----------|
E|------------------------------------------------------------|

Lead

E|------------------|
B|------------------|
G|----/16-----12----|
D|-------14h--------|
A|-----------------|
E|------------------|


"Na na na na na na ....

     E                  C              D           E
E|----------------------------------------------------------------------|
B|----------------------------------------------------------------------|
G|---------------------------------------------------------------------|
D|---9-x-9-9----------5-x-5--0--------7-x-7-7--7/9-x-9---7-7-7----------| 2 x
A|---7-x-7-7---7-7/---3-x-3----3h3/--5-x-5-5--5/9-x-7---7-7-7----------|
E|-------------7-7/-----------------------------9-------7-7-7----------|

Riff:

E|-----------------------------------------------------------------------|
B|-----------------------------------------------------------------------|
G|---7/9-9--9p7---7-9---------------------------------------------------|
D|-------------9--------5-6-7-5---5---5--7/8-8--8p7----7-----------------|
A|---------------------------------7---------------10---10------5-7-----|
E|------------------------------------------------------------7---------|


Verse:

     Em       C        D        Em      E       C
E|---3-x-x--------------------------------------------------------------------|
B|---5-x-x---5----7-x-x-7-x-7-x-x-7----8-x-x-8-x-8-x----5-x-x-5---7-x-x-7-----|
G|---4-x-x---5----7-x-x-7-x-7-x-x-7----7-x-x-7-x-7-x----5-x-x-5---7-x-x-7-----|
D|---5-x-x---5----7-x-x-7-x-7-x-x-7----9-x-x-9-x-9-x----7-x-x-7---7-x-x-7-----|
A|---3-x-x---3----5-x-x-5-x-5-x-x-5----7-x-x-7x-7-x----5-x-x-5---5-x-x-5-----|
E|---------------------------------------------------------------------------|

     C    D        G
E|--------------------------------------------------------------------|
B|--------------------------------------------------------------------|
G|-------------------------------------------------------------------|
D|---5-5--7--7-7------------4-----------------------------------------|
A|---3-3--5--5-5---5-5-5-5-------------------------------------------|
E|-----------------3-3-3-3-------------------------------------------|

Pre-Chorus:

     C     D      G   F#   E   D      A          B
E|-----------------------------------------------------------------------|
B|-----------------------------------------------4-4-4-4-----------------|
G|-----------------------------------2-2-2-2----4-4-4-4-----------------|
D|---5-5---7-7-------------9-x-7------2-2-2-2----4-4-4-4-----------------|
A|---3-3---5-5----5-x-4---7-x-5------0-0-0-0----2-2-2-2-----------------|
E|----------------3-x-2-------------------------------------------------|


Chorus:
[ Tab from: http://www.guitaretab.com/o/orange-range/97526.html ]
    E       C      D     G  B
E|--0-------0---------------------------------|-------------------------|
B|--0-------1------3-----3--4-----------------|-------------------------|
G|--0-------0------2----4--4-----------------|-------------------------|
D|--2-------2------0-----5--4-----------------|--5--7--7-7--9-9-9---7---|
A|--2-------3-----------5--2-----------------|--3--5--5-5--7-7-7---5---|
E|-----------------------3-------------------|-------------------------|

E|----------------------------------------------------|
B|----------------------------------------------------|
G|---------------------------------------------------|
D|----------------------------------------------------|
A|---5-7--5-7----------------5-7--5--7---------------|
E|--------------3--3-5--5-3--------------3--3-5--3\--|


Solo:

E|-----------------|--------------------------------------------------|
B|-----------------|--------------------------------------------------|
G|----/16-----12---|---14b-(16)-14b-(16)-14b-(16)p12-----12----------|
D|-------14h-------|----------------------------------14h----14-------|
A|----------------|--------------------------------------------------|
E|-----------------|-------------------------------------------------|

E|-----------------|----12--------12--------12------------------------|
B|-----------------|----15b-(17)--15b-(17)--15b-(17)------------------|
G|----/16-----12---|-------------------------------------------------|
D|-------14h-------|--------------------------------------------------|
A|----------------|--------------------------------------------------|
E|-----------------|-------------------------------------------------|

After solo:

                                                        A       B       B
E|--------------------------------------------------------------------------|
B|----------5-----------7---------------------------------------4-4-4---4---|
G|--------5---5------7---7-----------------------------2-2-2---4-4-4---4---|
D|------5-----------7-----------------------------------2-2-2---4-4-4---4---|
A|----3-----------5-----------------------/7----5------0-0-0---2-2-2---2---|
E|------------------------------3---2--------------------------------------|

Last Chorus:

    Fm      C#     D#    G# C
E|--1-------1---------------------------------|----------------------------|-----|
B|--1-------2------4-----4--5-----------------|----------------------------|-----|
G|--1-------1------3----5--5-----------------|----------------------------|-----|
D|--3-------3------1-----6--5-----------------|--6--8--8-8--10-10-10---8---|--6--|
A|--3-------4------1----6--3-----------------|--4--6--6-6--8--8--8----6---|--4--|
E|--1--------------------4-------------------|----------------------------|-----|

"Na na na na na na ....

     F                   C#               D#           F
E|----------------------------------------------------------------------|
B|----------------------------------------------------------------------|
G|---------------------------------------------------------------------|
D|---10-x-10-10----------6-x-6------------8-x-8-8--8/10-x-10---8-8-8----| 2 x
A|---8--x-8--8---8-8/-- -4-x-4--6--4-4/--6-x-6-6--6/10-x-8----8-8-8----|
E|---------------8-8/-------------------------------10--------8-8-8----|

Last riff:

E|----------------------------------------------------------------------------|
B|----------------------------------------------------------------------------|
G|---8/10-10--10p8----8-10---------------------------------------------------|
D|-----------------10--------6-7-8-6---6---6--8/9-9--9p8----8-----------------|
A|--------------------------------------8---------------11---11------6-8-----|
E|-----------------------------------------------------------------8---------|


~ copyright by renzoku ~ [2007]
Related for Ikenai Taiyou tab