Song name
# A B C D E F G H I J K L M N O P Q R S T U V W X Y Z

Orba Squara - Perfect Timing This Morning tab

----------------------------------------------------------------------------
			     Perfect Timing (this morning) - Orba Squara
----------------------------------------------------------------------------
Tabbed by:Bobby
Email:gameking516@aol.com
this song was also used by apple for the original iphone commercial and if this is not 
correct its 99%
Tuning:Standard

first part
e|--------------------------------------------------------------------------|
B|----13-----11-9---------9---11--------------------------------------------|
G|-----------------8--10-------------(Repeat once)--------------------------|
D|--------------------------------------------------------------------------|
A|--------------------------------------------------------------------------|
E|--------------------------------------------------------------------------|

second part (continuing from first part)
e|--------------------------------------------------------------------------|
B|----14--13------11---14--13------11---13----14----------------------------|
G|------------13---------------13--------------------13---------------------|
D|--------------------------------------------------------------------------|
A|--------------------------------------------------------------------------|
E|--------------------------------------------------------------------------|

third part (continuing from second part)
e|--------------------------------------------------------------------------|
B|--9--11--13--9------------------------9--11--13--9-------9-11--13--14-----|
G|----------------8-10-8------------------------------8-10---------------13-|
D|------------------------(repeat once)-------------------------------------|
A|--------------------------------------------------------------------------|
E|--------------------------------------------------------------------------|

once again if this isnt 100% correct which im sure it is but if it isnt its 99% correct 
because of the spacings which are mostly evened out but no garantees
                         Peace,Bobby
Tap to rate this tab
 
# A B C D E F G H I J K L M N O P Q R S T U V W X Y Z