Guitaretab - guitar tabs
Song name
# A B C D E F G H I J K L M N O P Q R S T U V W X Y Z

Orba Squara - Perfect Timing This Morning tab

Perfect Timing
Orba Squara
Capo 4th fret
Standard tuning

This Song is played on two guitars, but i prefer to play both parts on one guitar, as i 
tabbed out.  You'll recognize this song from the Iphone commercials.  This is my first 
I hope you like it.

INTRO / MUSICAL BREAK
|-4-----20--------0-----------2---||-4-----20--------0-----------2---|
|-------2-----2---------2---------||-------2-----2---------2---------|
|---4-------4----4--4-------4---4-||---4-------4----4--4-------4---4-|
|---------------2--------------2--||---------------2--------------2--|
|-----------------------------2---||-0---0---0---0---0---0---0---0---|
|-0---0---0---0---0---0---0-------||---------------------------------|

|-5---4---0---2---5---4---0---2---||-----------------5---------------|
|---------------------------------||-5---------------5---------------|
|---2---2---2---2---2---2---2-----||-2---------------6---------------|
|---------------------------------||-2-------------------------------|
|---------------------------------||---------------------------------|
|-2---2--2---2---2---2---2---2---||-2---------------5---------------|
[ Tab from: http://www.guitaretab.com/o/orba-squara/94631.html ]
|-0---2---4---0-------------------||-0---2---4---0-------------------|
|----------------2--2-------------||----------------2--2-------------|
|---4---4---4-----4---4-----4---4-||---4---4---4-----4---4-----4---4-|
|---------------2-------2------2--||---------------2-------2------2--|
|-----------------------------2---||-0---0---0---0---0---0---0---0---|
|-0---0---0---0---0---0---0-------||---------------------------------|

|-0---2---4---0-----------0---2---||-4---------------5---------------|
|-----------------0---2-----------||-5---------------5---------------|
|---2---2---2---2---2---2---2-----||-2---------------6---------------|
|---------------------------------||-2---------------7---------------|
|---------------------------------||---------------------------------|
|-2---2--2---2---2---2---2---2---||-2---------------5---------------|

VERSE
|-0-------------------------------||---------------------------------|
|-------2---------------2---------||-------2---------------2---------|
|---4-------4----4--4-------4---4-||---4-------4----4--4-------4---4-|
|---------------2--------------2--||---------------2--------------2--|
|-----------------------------2---||-0---0---0---0---0---0---0---0---|
|-0---0---0---0---0---0---0-------||---------------------------------|

|-------0-------0-------0---------||-----------------5---------------|
|-----------2-------2-------2-----||-5---------------5---------------|
|---2-----------------------------||-2---------------6---------------|
|---------------------------------||-2-------------------------------|
|---------------------------------||---------------------------------|
|-2---2--2---2---2---2---2---2---||-2---------------5---------------|

Song Order:
Intro
Verse
Verse
Musical Break
Verse
Verse
Outro (play the verse a few times, variate it a bit)
Related for Perfect Timing This Morning tab