Song name
# A B C D E F G H I J K L M N O P Q R S T U V W X Y Z

Orcatastrophe - Outtakes tab

Orcatastrophe - Outtakes
http://www.orcatastrophe.de/

http://db.tt/1BBB6adq


e|--------------------------------------------------|
B|--------------------------------------------------|
G|--------------------------------------------------|
D|--------------4--------2--------------------------|
A|--2--2--5--2-----5--2-----0--2--2--0--2--5--2--0--|
E|--------------------------------------------------|


e|--------------------------------------------------|
B|--------------------------------------------------|
G|--------------------------------------------------|
D|--------------------------------------------------|
A|--------2-----5--2-----2--------2-----2-----0-----|
E|--3--3-----3--------3-----3--3-----3-----3--------|
Tap to rate this tab
# A B C D E F G H I J K L M N O P Q R S T U V W X Y Z