Song name
# A B C D E F G H I J K L M N O P Q R S T U V W X Y Z

Orchestra Baobab - Pape Ndiaye tab

-------------------------------------------------------------------------------
			    Pape Ndiaye - Orchestra Baobab
-------------------------------------------------------------------------------
Tabbed by: Jeff

runs through whole song

                               .
e|---------------------------------------------------------------------------|
B|--6----------------------------------3-------------------------------------|
G|----5------------------------5---3-----2--2--------------------------------|
D|------7-------3-----------5------------------------------------------------|
A|----------3/5----5---7-----------------------------------------------------|
E|---------------------------------------------------------------------------|

http://www.myspace.com/orchestrabaobabofficial

| /  slide up
| \  slide down
| h  hammer-on
| p  pull-off
| ~  vibrato
| +  harmonic
| x  Mute note
===============================================================================
Tap to rate this tab
# A B C D E F G H I J K L M N O P Q R S T U V W X Y Z