Song name
# A B C D E F G H I J K L M N O P Q R S T U V W X Y Z

Orchid - Amherst Pandemonium Part 1 tab

Help us improve GuitareTab! Take a short survey!
-------------------------------------------------------------------------------
	              Amherst Pandemonium Part 1 - ORCHID
-------------------------------------------------------------------------------

Tabbed by: dustin james chandler
Email: bearseekingbear@gmail.com

Tuning: Orchid plays a half step down from standard.


0:00-0:12
*album intro*


0:13-0:17
you own, you own everything...

Eb---------------------------------------------|
Bb---------------------------------------------|
Gb---------------10/9---------------10/9-------|
Db--0-0-0-0-0-0---x-x---0-0-0-0-0-0--x-x-------|
Ab--2-2-2-2-2-2---8/7---2-2-2-2-2-2--8/7-------|
Eb--0-0-0-0-0-0---0-0---0-0-0-0-0-0--0-0-------|

Eb-----------------------------------|
Bb-----------------------------------|
Gb---------------9---7---10--9---7---|
Db--0-0-0-0-0-0--x---x---x---x---x---|
Ab--2-2-2-2-2-2--7---5---8---7---5---|
Eb--0-0-0-0-0-0--0---0---0---0---0---|


0:17-0:21
that's why there is nothing new...

Eb-------------------------|
Bb-------------------------|
Gb---------------10-10-10--|
Db--0/0-0-0-0-0--x--x--x---|
Ab--8/7-7-0-0-0--8--8--8---|
Eb--0-0-0-0-0-0--0--0--0---|


0:22-0:31
this is the face of the change...

Eb---------------------------------------------------------------|
Bb---------------------------------------------------------------|
Gb--9-9-9-9-9-9-9-9-9-9-9-9-11-11-11-11-11-11-12-12-12-12-12-12--|
Db--x-x-x-x-x-x-x-x-x-x-x-x-x--x--x--x--x--x--x--x--x--x--x--x---|
Ab--7-7-7-7-7-7-7-7-7-7-7-7-9--9--9--9--9--9--10-10-10-10-10-10--|
Eb--0-0-0-0-0-0-0-0-0-0-0-0-0--0--0--0--0--0--0--0--0--0--0--0---|


0:32-0:42
I've seen the old guard running around...

Eb-----------------------------------------|
Bb-----------------------------------------|
Gb--16-16-\-14-14-14-\-12-12-/-19-19-19----|
Db---x--x----x--x--x----x--x----x--x--x----|
Ab--14-14-\-12-12-12-\-10-10-/-17-17-17----|
Eb--0--0-----0--0--0----0--0----0--0--0----|


the last part is really hard to decipher but it sounds like he is
sliding around super fast using this pattern of octave chords.

Eb---------------------------]---------]
Bb---------------------------]---------]
Gb--10-10-\-7-/-9-\-7-7-/----]--10-10--]
Db--x--x----x---x---x-x------]--x--x---]
Ab--8--8--\-5-/-7-\-5-5-/----]--8--8---]
Eb--0--0----0---0---0-0------]--0--0---] and end on the 8&10 octave. :-D


0:46-0:57
telephone line effect type outro...

Eb-------------------------------------]
Bb-------------------------------------]
Gb-------------------------------------]
Db-------------------------------------]
Ab--7-----6^--5/7---7-----6^--5/7------]
Eb-----0---------------0---------------] repeat 4x
pm     .               .


[Lyrics]

You own.
You own everything.
That's why there is nothing new.
This is the face of the change.
All in all,
This is the face of the change.
Why not face it?
I've seen the old guard running around.
All of these kids are cops in my town.
I've seen the old guard run us down.
You.
(This is the face of change.
Face of the one.
Face of the framed.)
Related for Amherst Pandemonium Part 1 tab