Song name
# A B C D E F G H I J K L M N O P Q R S T U V W X Y Z

Orchid - I Am Nietzche tab

Orchid - I Am Nietzche
Credit: Billykidman (me)
Tuning: Drop D


E||---------------------|--------------|---------------------|
B||---------------------|--------------|---------------------|
G||------------5--------|---------4----|------------5--------|
D||-------4---------4---|--3-----------|-------4---------4---|
A||---------------------|--------------|---------------------|
D||--1------------------|--------------|--1------------------|

--------------|---------------------|--------------|
--------------|---------------------|--------------|
---------4----|------------5--------|---------4----|
--3-----------|-------4---------4---|--3-----------|
--------------|---------------------|--------------|
--------------|--1------------------|--------------|

----------------------|--------------|-------------|
----------------------|--------------|-------------|
------------5---------|---------4----|--/3---------|
-------4---------4----|--3-----------|-------------|
----------------------|--------------|-------------|
--1-------------------|--------------|-------------|

----------------------|------------|----------------------|
----------------------|------------|----------------------|
--/1--------6----4----|--3---------|--/1--------6----4----|
----------------------|------------|----------------------|
----------------------|------------|----------------------|
----------------------|------------|----------------------|

-------------|----------------------|-------------|
-------------|----------------------|-------------|
--3----------|--/1--------6----4----|--3----------|
-------------|----------------------|-------------|
-------------|----------------------|-------------|
-------------|----------------------|-------------|

----------------------|-----------------------------|
----------------------|-----------------------------|
--/1--------6----4----|--6-6--4-4--3-3--3-3--3-3----|
----------------------|-----------------------------|
----------------------|--4-4--2-2--1-1--1-1--1-1--0-|
----------------------|---------------------------0-|

-----------------------------|-----------------------------|
-----------------------------|-----------------------------|
--6-6--4-4--3-3--3-3--3-3----|--6-6--4-4--3-3--3-3--3-3----|
-----------------------------|-----------------------------|
--4-4--2-2--1-1--1-1--1-1--0-|--4-4--2-2--1-1--1-1--1-1--0-|
---------------------------0-|---------------------------0-|

-----------------------------|----------------------------------|
-----------------------------|----------------------------------|
--6-6--4-4--3-3--3-3--3-3----|--3-3-3-3-3-3-3-3-9-9-9-9-9-9-9-9-|
-----------------------------|----------------------------------|
--4-4--2-2--1-1--1-1--1-1--0-|--1-1-1-1-1-1-1-1-7-7-7-7-7-7-7-7-|
---------------------------0-|----------------------------------|

-------------------------------|--------------------------------|
-------------------------------|--------------------------------|
8-8-8-8-8-8-8-8-8-8-8-8-8-8-8-8|3-3-3-3-3-3-3-3-9-9-9-9-9-9-9-9-|
-------------------------------|--------------------------------|
6-6-6-6-6-6-6-6-6-6-6-6-6-6-6-6|1-1-1-1-1-1-1-1-7-7-7-7-7-7-7-7-|
-------------------------------|--------------------------------|

-------------------------------|--------------------------------|
-------------------------------|--------------------------------|
8-8-8-8-8-8-8-8-8-8-8-8-8-8-8-8|/11-8-8-8-8-8-8-8-8-8-8-8-8-8-8-|
-------------------------------|--------------------------------|
6-6-6-6-6-6-6-6-6-6-6-6-6-6-6-6|-/9-6-6-6-6-6-6-6-6-6-6-6-6-6-6-|
-------------------------------|--------------------------------|

-------------------------------|--------------------------------|
-------------------------------|--------------------------------|
11-8-8-8-8-8-8-8-8-8-8-8-8-8-8-|/11-8-8-8-8-8-8-8-8-8-8-8-8-8-8-|
-------------------------------|--------------------------------|
-9-6-6-6-6-6-6-6-6-6-6-6-6-6-6-|-/9-6-6-6-6-6-6-6-6-6-6-6-6-6-6-|
-------------------------------|--------------------------------|

-------------------------------|--------------------------------|
-------------------------------|--------------------------------|
11-11--9-9--8--8-8-8-8-8-8-8-8-|3-3-3-3-3-3-3-3-9-9-9-9-9-9-9-9-|
-------------------------------|--------------------------------|
-9--9--7-7--6--6-6-6-6-6-6-6-6-|1-1-1-1-1-1-1-1-7-7-7-7-7-7-7-7-|
-------------------------------|--------------------------------|

-------------------------------|--------------------------------|
-------------------------------|--------------------------------|
8-8-8-8-8-8-8-8-8-8-8-8-8-8-8-8|3-3-3-3-3-3-3-3-9-9-9-9-9-9-9-9-|
-------------------------------|--------------------------------|
6-6-6-6-6-6-6-6-6-6-6-6-6-6-6-6|1-1-1-1-1-1-1-1-7-7-7-7-7-7-7-7-|
-------------------------------|--------------------------------|

-------------------------------|--------------------------------|
-------------------------------|--------------------------------|
8-8-8-8-8-8-8-8-8-8-8-8-8-8-8-8|/11-8-8-8-8-8-8-8-8-8-8-8-8-8-8-|
-------------------------------|--------------------------------|
6-6-6-6-6-6-6-6-6-6-6-6-6-6-6-6|-/9-6-6-6-6-6-6-6-6-6-6-6-6-6-6-|
-------------------------------|--------------------------------|

-------------------------------|--------------------------------|
-------------------------------|--------------------------------|
3-3-3-3-3-3-3-3-6-6-6-4-4-4-4-4|3-3-3-3-3-3-3-3-6-6-6-4-4-4-4-4-|
-------------------------------|--------------------------------|
1-1-1-1-1-1-1-1-4-4-4-2-2-2-2-2|1-1-1-1-1-1-1-1-4-4-4-2-2-2-2-2-|
-------------------------------|--------------------------------|

-------------------------------|--------------------------------|
-------------------------------|--------------------------------|
3-3-3-3-3-3-3-3-9-9-9-9-9-9-9-9|8-8-8-8-8-8-8-8-8-8-8-8-8-8-8-8-|
-------------------------------|--------------------------------|
1-1-1-1-1-1-1-1-7-7-7-7-7-7-7-7|6-6-6-6-6-6-6-6-6-6-6-6-6-6-6-6-|
-------------------------------|--------------------------------|

-------------------------------|--------------------------------|
-------------------------------|--------------------------------|
3-3-3-3-3-3-3-3-9-9-9-9-9-9-9-9|8-8-8-8-8-8-8-8-8-8-8-8-8-8-8-8-|
-------------------------------|--------------------------------|
1-1-1-1-1-1-1-1-7-7-7-7-7-7-7-7|6-6-6-6-6-6-6-6-6-6-6-6-6-6-6-6-|
-------------------------------|--------------------------------|

---------------------------------|------------------------------|
---------------------------------|------------------------------|
-8-8-8-8-8-8-8-8-8-8-8-8-8-8-8-8-|--------------3-9-9-9-9-8-8-8-|
---------------------------------|------------------------------|
-6-6-6-6-6-6-6-6-6-6-6-6-6-6-6-6-|--1--1--1--1--1-7-7-7-7-6-6-6-|
---------------------------------|--1--1--1--1------------------|

------------------------------|------------------------------|
------------------------------|------------------------------|
--------------3-9-9-9-9-8-8-8-|--------------3-9-9-9-9-8-8-8-|
------------------------------|------------------------------|
--1--1--1--1--1-7-7-7-7-6-6-6-|--1--1--1--1--1-7-7-7-7-6-6-6-|
--1--1--1--1------------------|--1--1--1--1------------------|

------------------------------|------------------------------|
------------------------------|------------------------------|
--------------3-9-9-9-9-8-8-8-|--------------3-9-9-9-9-8-8-8-|
------------------------------|------------------------------|
--1--1--1--1--1-7-7-7-7-6-6-6-|--1--1--1--1--1-7-7-7-7-6-6-6-|
--1--1--1--1------------------|--1--1--1--1------------------|

------------------------------|------------------------------|
------------------------------|------------------------------|
--------------3-9-9-9-9-8-8-8-|--------------3-9-9-9-9-8-8-8-|
------------------------------|------------------------------|
--1--1--1--1--1-7-7-7-7-6-6-6-|--1--1--1--1--1-7-7-7-7-6-6-6-|
--1--1--1--1------------------|--1--1--1--1------------------|

----------------------------|-----------------|-----------------|
----------------------------|-----------------|-----------------|
------------3-9-9-9-9-8-8-8-|--3---------6--4-|--3---------6--4-|
----------------------------|--------6--------|--------6--------|
1--1--1--1--1-7-7-7-7-6-6-6-|--1---------4--2-|--1---------4--2-|
1--1--1--1------------------|--------6--------|--------6--------|

----------------|----------------|------------------------------|
----------------|----------------|------------------------------|
3----------6--4-|3----------6--4-|-9-9-9-9-9-9--9-9-9--9-9-9-9-9|
------6---------|------6---------|------------------------------|
1----------4--2-|1----------4--2-|-7-7-7-7-7-7--7-7-7--7-7-7-7-7|
------6---------|------6---------|------------------------------|

-------------------------------|-------------------||
-------------------------------|-------------------||
--9-9-9--9-9-9--9-9-9-9--9-9-9-|--3----------------||
-------------------------------|-------------------||
--7-7-7--7-7-7--7-7-7-7--7-7-7-|--1----------------||
-------------------------------|-------------------||
Tap to rate this tab
 
# A B C D E F G H I J K L M N O P Q R S T U V W X Y Z