Song name
# A B C D E F G H I J K L M N O P Q R S T U V W X Y Z

Orchid - Weekend At The Fire Academy tab

-------------------------------------------------------------------------------
	              Weekend At The Fire Academy - ORCHID
-------------------------------------------------------------------------------

Tabbed by: chase c.

Tuning: Orchid plays a half step down from standard.

Eb Ab Db Gb Bb Eb or D# G# C# F# A# D#

Pretty easy, simple song once you figure it out. Only about 3 riffs.

/ = slide
b = bend
~ = tremelo

Intro     :00 - :10
Verse 1   :11 - :20
Verse 2   :21 - :29
Verse 1   :30 - :38
Bridge    :39 - :42
Verse 2   :43 - :46



Intro
Eb-6-6-6-6-7-7-7-7-8-8-8-8-7-7-7-7--|
Bb-0-0-0-0-0-0-0-0-0-0-0-0-0-0-0-0--|
Gb----------------------------------|
Db----------------------------------|
Ab----------------------------------|
Eb----------------------------------| x 4

Verse 1 - Chords are tremolo picked
Eb---------------------------------------------------------------------------|
Bb---------------------------------------------------------------------------|
Gb---------------------------------------------------------------------------|
Db-~8-8-8-8-8-8-8-8-9-9-9-9-9-9-9-9-10-10-10-10-10-10-10-10-9-9-9-9-9-9-9-9--|
Ab-~8-8-8-8-8-8-8-8-9-9-9-9-9-9-9-9-10-10-10-10-10-10-10-10-9-9-9-9-9-9-9-9--|
Eb-~6-6-6-6-6-6-6-6-7-7-7-7-7-7-7-7--8--8--8--8--8--8--8--8-7-7-7-7-7-7-7-7--| x 4

Verse 2
Eb------------------------------------------------------|
Bb------------------------------------------------------|
Gb------------------------------------------------------|
Db-9-9-9-9/~13b-9-9-9-9/~13b-9-9-9-9/~12b-9-9-9-9/~12b--|
Ab-9-9-9-9/~13b-9-9-9-9/~13b-9-9-9-9/~12b-9-9-9-9/~12b--|
Eb-7-7-7-7------7-7-7-7------7-7-7-7------7-7-7-7-------| x 2

Bridge
Eb------------------------------|
Bb------------------------------|
Gb------------------------------|
Db-9-9-----9-9-----9-9-----9-9--|
Ab-9-9-----9-9-----9-9-----9-9--|
Eb-7-7-----7-7-----7-7-----7-7--|

That's it.
Tap to rate this tab
# A B C D E F G H I J K L M N O P Q R S T U V W X Y Z