Song name
# A B C D E F G H I J K L M N O P Q R S T U V W X Y Z

Orden Ogan - We Are Pirates tab

-------------------------------------------------------------------------------
                             We Are Pirates - Orden Ogan
-------------------------------------------------------------------------------
Tabbed by: Mauricio Santos
E-mail: mmsantos1@gmail.com

Tuning: Standard tuning

This is a small selection of riffs from the song, please use this to tab the rest 
of the song if you wish! 


Intro:

Gtr1
e|---------------------------------------------------------------------------|
B|---------------------------------------------------------------------------|
G|---------------------------------------------------------------------------|
D|-----7--9-10-9h10p9-7------------7--9-10-9h10p9-7-------------10--12-14----|
A|---7------------------10-7-----7------------------10-----7/10--------------|
E|---------------------------------------------------------------------------|
Gtr2
e|---------------------------------------------------------------------------|
B|---------------------------------------------------------------------------|
G|---------------------------------------------------------------------------|
D|---------------------------------------------------------------------------|
A|-----7-----------------2---------7-----------------5-----------2-----------|
E|-----5-----------------0---------5-----------------3-----------0-----------|
Gtr1
e|---------------------------------------------------------------------------|
B|---------------------------------------------------------------------------|
G|---------------------------------------------------------------------------|
D|---12h14p12-10--------------9-10-9-7--9-7-----7----------------------------|
A|---------------14--10--7------------------10-------------------------------|
E|---------------------------------------------------------------------------|
Gtr2
e|---------------------------------------------------------------------------|
B|---------------------------------------------------------------------------|
G|---------------------------------------------------------------------------|
D|---------------------------------------------------------------------------|
A|---------------5--------------7-------5-------7----------------------------|
E|---------------3--------------5-------3-------5----------------------------|

1:36 Pre-verse

e|---------------------------------------------------------------------------|
B|-----------------------------------------------------------------5588------|
G|-------------------------------------------------------------5577----------|
D|--------------------------55999955-----------------------------------------|
A|----775577--775577--775577-------------775577--775577--775577--------------|
E|--55------55------55-----------------55------55------55--------------------|
Repeat with variations 


2:06 Verse 

e|---------------------------------------------------------------------------|
B|---------------------------------------------------------------------------|
G|---------------------------------------------------------------------------|
D|101010101010101077777777999910101010---------------------------------------|
A|------------------------------------777710101010---------------------------|
E|---------------------------------------------------------------------------|

e|---------------------------------------------------------------------------|
B|---------------------------------------------------------------------------|
G|---------------------------------------------------------------------------|
D|10101010101010105555555599999999-------------------------------------------|
A|--------------------------------101010107777-------------------------------|
E|---------------------------------------------------------------------------|

e|---------------------------------------------------------------------------|
B|---------------------------------------------------------------------------|
G|---------------------------------------------------------------------------|
D|101010101010101077777777999910101010---------------------------------------|
A|------------------------------------777710101010---------------------------|
E|---------------------------------------------------------------------------|

e|---------------------------------------------------------------------------|
B|---------------------------------------------------------------------------|
G|99999999-------------------------------------------------------------------|
D|--------1010101010101010121212121212121299995555---------------------------|
A|---------------------------------------------------------------------------|
E|---------------------------------------------------------------------------|

4:38 Pre-solo

e|---------------------------------------------------------------------------|
B|---------------------------------------------------------------------------|
G|-----------------------------------------------------1414----12121414------|
D|---------------------------------------------------------1414--------1414--|
A|-7-----5--7---------------------------7-----5--7---------------------------|
E|-5-55553--5-55555555 crazy riff here--5-55553--5-5555----------------------|

e|---------------------------------------------------------------------------|
B|---------------------------------------------------------------------------|
G|---------------------------------------------------------------------------|
D|12121010-------------------------------------------------------------------|
A|--------1212---------------------------------------------------------------|
E|---------------------------------------------------------------------------|

That's all I've got, enjoy. 
************************************

| /   slide up
| \   slide down
| h   hammer-on
| p   pull-off
| ~   vibrato
| +   harmonic
| x   Mute note
| b   Bend
| pb  Pre-bend
| br  Bend release
| pbr Pre-bend release
| brb Bend release bend

************************************
Tap to rate this tab
# A B C D E F G H I J K L M N O P Q R S T U V W X Y Z