Song name
# A B C D E F G H I J K L M N O P Q R S T U V W X Y Z

Orden Ogan - All These Dark Years tab

Orden Ogan - All these dark years.
Such an amazing song, Tabbed by Eldad Corem. 1\23\14

Intro:

All the open string notes are palm muted.

e|----------------------------------------------------------------------------|
B|----------------------------------------------------------------------------|
G|----------------------------------------------------------------------------|    X2
D|-----------------2------------------------------------2---------------------|
A|-----------------2---7--5-----------------------------2---7--5------------5-|
E|-0-000-0-0-23-00-0-00-00-0-5h7-00-232-0-000-0-0-23-00-0-00-00-0-5h7-00-2h3--|

e|-----------------------------------------------------------------------|
B|-----------------------------------------------------------------------|
G|-----------------------------------------------------------------------|
D|-----------------------------------------------------------------------|  X2
A|------------------7--5------------5------------------7--5------------5-|
E|-000000-0-000000-0-00-0-5h7-00-2h3--000000-0-000000-0-00-0-5h7-00-2h3--|

Then second guitar goes:

E|-2-|
A|-2-| And let it ring until the Verse starts, then it pick slides.
E|-0-|

While guitar one:

e|-------------------------------------------------------------|
B|-------------------------------------------------------------|
G|-------------------------------------------------------------|
D|-------------------------------------------------------------|
A|--10-9-7-5-5-7---10-9-7-5-5-7---10-9-7-5-5-7---10-9-7-5-5-7--|
E|-0--0-0-0-0---0-0--0-0-0-0---0-0--0-0-0-0---0-0--0-0-0-0---0-|

Verse 1:

Lost my heart on the eastern shore.. (no guitar)

All alone, here fire's dying..

   Let ring..
e|-------------|
B|-------------|
G|-------------|
D|-------------|   X2
A|-7~---5~-----|
E|---7~---5~---|

All the open E-string notes are palm muted.

I wasted half my life, But all I ever wanted was a clearer view of myself..
I broke my back with all the things that I considered, And now there's nothing left of it..

e|------------------------------------------------------------------------10-|
B|---------------------------------------------------------------------8-7---|
G|------7-----------------7-------------------7-----------------7-----7------|
D|-------5-----------------5-------------------5-----------------5---7-------|  X2
A|--------7-------2h5-------7-5-2-0-2-0---------7-----10-12-------7s9--------|
E|-0-000---3p0h2h3---0-000-------------3-0-000---0-000--0--0-000-------------|

Bridge:

All bass notes are palm muted for this part.

   And the ashes of fathers, Now cover the track
e|-------------------------------------------------|
B|-------------------------------------------------|
G|-------------------4---4-------------------4---4-|
D|-------2---2-------4---4-------2---2-------4---4-|
A|-------2---2-2-222-2-2-2-------2---2-2-222-2-2-2-|
E|-0-000-0-0-0-------------0-000-0-0-0-------------|

   In a land where fortune is borrowed
e|-------------------------------------------------|
B|-------------------------------------------------|
G|-------------------4---4-------5---5-------7---7-|
D|-------2---2-------4---4-------5---5-------7---7-|
A|-------2---2-2-222-2-2-2-3-333-3-3-3-5-555-5-5-5-|
E|-0-000-0-0-0-------------------------------------|

In these days where all luck, is just leaving the sad
                                                    In the air just thoughts full of sorrow..
e|----------------------------------------------------------------|
B|----------------------------------------------------------------|
G|-------------------4---4-------5---5-------7---7----------------|
D|-------2---2-------4---4-------5---5-------7---7--7--9--10--12--|
A|-------2---2-2-222-2-2-2-3-333-3-3-3-5-555-5-5-5--7--9--10--12--|
E|-0-000-0-0-0--------------------------------------5--7--8---10--|

Chorus:
(All open E-string notes are palm muted)

                                        Through all these dark years..
e|----------------------------------------------------------------------------------------|
B|----------------------------------------------------------------------------------------|
G|----------------------------------------------------------------------------------------|
D|------9-7-9-----9-7-9-----10-9-10-----10-9-10-----7-5-7-----7-5-7-----7-5-7/9-7-5-7-5-4-|  X4
A|----------------------------------------------------------------------------------------|
E|-0-000-----0-000-----0-000-------0-000-------0-000-----0-000-----0-000------------------|

Verse 2:
(all open E-string notes are palm muted.)

Another darkness, another repose, is what I yield to thee
Don't fear the veil nor my cold embrace, For it will set you free
e|----------------------------------------------------------------------------------|
B|----------------------------------------------------------------------------------|
G|------9-7-9-----------------9-7-9-----------------12-9-12-----------------11-9-11-|
D|----------------------------------------------------------------------------------|  X2
A|----------------------------------------------------------------------------------|
E|-0-000-----0-000-0-0-0-0-000-----0-000-0-0-0-0-000-------0-000-0-0-0-0-000--------|

Bridge:

All bass notes are palm muted for this part.

   And the ashes of fathers, Now cover the track
e|-------------------------------------------------|
B|-------------------------------------------------|
G|-------------------4---4-------------------4---4-|
D|-------2---2-------4---4-------2---2-------4---4-|
A|-------2---2-2-222-2-2-2-------2---2-2-222-2-2-2-|
E|-0-000-0-0-0-------------0-000-0-0-0-------------|

   In a land where fortune is borrowed
e|-------------------------------------------------|
B|-------------------------------------------------|
G|-------------------4---4-------5---5-------7---7-|
D|-------2---2-------4---4-------5---5-------7---7-|
A|-------2---2-2-222-2-2-2-3-333-3-3-3-5-555-5-5-5-|
E|-0-000-0-0-0-------------------------------------|

In these days where all luck, is just leaving the sad
                                                    In the air just thoughts full of sorrow..
e|----------------------------------------------------------------|
B|----------------------------------------------------------------|
G|-------------------4---4-------5---5-------7---7----------------|
D|-------2---2-------4---4-------5---5-------7---7--7--9--10--12--|
A|-------2---2-2-222-2-2-2-3-333-3-3-3-5-555-5-5-5--7--9--10--12--|
E|-0-000-0-0-0--------------------------------------5--7--8---10--|

Chorus:
(All open E-string notes are palm muted)

                                        Through all these dark years..
e|----------------------------------------------------------------------------------------|
B|----------------------------------------------------------------------------------------|
G|----------------------------------------------------------------------------------------|
D|------9-7-9-----9-7-9-----10-9-10-----10-9-10-----7-5-7-----7-5-7-----7-5-7/9-7-5-7-5-4-|  X5
A|----------------------------------------------------------------------------------------|
E|-0-000-----0-000-----0-000-------0-000-------0-000-----0-000-----0-000------------------|

Break

e|-----------------------------------------------------------------------|
B|-----------------------------------------------------------------------|
G|-----------------------------------------------------------------------|
D|-----------------------------------------------------------------------|
A|------------------7--5------------5------------------7--5------------5-|
E|-000000-0-000000-0-00-0-5h7-00-2h3--000000-0-000000-0-00-0-5h7-00-2h3--|

Solo:

Guitar 1:

e|-17b-17~-17-15h17p15p1415-14h15p14\12-14-12h14p12-------|
B|-------------------------------------------------15-12~-|
G|--------------------------------------------------------|
D|--------------------------------------------------------|
A|--------------------------------------------------------|
E|--------------------------------------------------------|

e|---------------15-17-15-----------------------------14-15-14-----------------------|
B|-17-19-15-17-19--------19-17-15-17-19-17-15-14-15-17--------17-15-14-15-17-15-14---|
G|--------------------------------------------------------------------------------16-|
D|-----------------------------------------------------------------------------------|
A|-----------------------------------------------------------------------------------|
E|-----------------------------------------------------------------------------------|

e|-----------------------|
B|-----------------------|
G|-----------------------|
D|--14-16-17-19-16h17h16-|
A|-----------------------|
E|-0--0--0--0--0---------|

e|---------------------141517141517141517---------------------141517141517141517-|
B|-17141517141517141517-------------------17141517141517141517-------------------|
G|-------------------------------------------------------------------------------|
D|-------------------------------------------------------------------------------|
A|-------------------------------------------------------------------------------|
E|-------------------------------------------------------------------------------|

e|---------------------1415171415171415171517141517141517-19b--r19~--------------------------17-19~-|
B|-17141517141517141517------------------------------------------------------------------19---------|
G|------------------------------------------------------------------------16-17-19--16-19--19-------|
D|----------------------------------------------------------------------17--------17----------------|
A|-----------------------------------------------------------------15-19----------------------------|
E|--------------------------------------------------------------------------------------------------|

Guitar 2:
(palm mute open E-string notes)
e|------------------------------------------------------------------------10-|
B|---------------------------------------------------------------------8-7---|
G|------7-----------------7-------------------7-----------------7-----7------|
D|-------5-----------------5-------------------5-----------------5---7-------|  X2
A|--------7-------2h5-------7-5-2-0-2-0---------7-----10-12-------7s9--------|
E|-0-000---3p0h2h3---0-000-------------3-0-000---0-000--0--0-000-------------|

Outro and last chorus:
(palm mute open E-string notes)

e|-----------------------------------------------------------------------|
B|-----------------------------------------------------------------------|
G|-----------------------------------------------------------------------|
D|-----------------------------------------------------------------------|
A|------------------7--5------------5------------------7--5------------5-|
E|-000000-0-000000-0-00-0-5h7-00-2h3--000000-0-000000-0-00-0-5h7-00-2h3--|

Fade out..


Keep rocking! Eldad.

************************************

| /   slide up
| \   slide down
| h   hammer-on
| p   pull-off
| ~   vibrato
| +   harmonic
| x   Mute note
| b   Bend
| pb  Pre-bend
| br  Bend release
| pbr Pre-bend release
| brb Bend release bend

************************************
Tap to rate this tab
# A B C D E F G H I J K L M N O P Q R S T U V W X Y Z