Song name
# A B C D E F G H I J K L M N O P Q R S T U V W X Y Z

Ordinary Boys - Boys Will Be Boys tab

Help us improve GuitareTab! Take a short survey!
This is 100% accurate, I garentee, Please rate..  Thanks  :)

(Enjoy)
Gtr 1:
|--------------------|
|--------------------|
|--------------------|
|--5-4---------------|
|--3-2-5-4-2---2-2-2-|
|------3-2-0---0-0-0-|

At the Gap in the above tab Gtr 2 plays this:

|-------------------|  After the end of the top tab play this:
|-------------------|  
|---4-4-4-4-3-4-----| |-------------------|  Repeat whole sequence twice.
|-------------------| |-------------------|
|-------------------| |-4-4-4-4-3-4-------|
|-------------------| |-------------5-4---| 
                      |-------------------| 
                      |-------------------|  

Play the strums with a ska rythym ie. Muting after each UP STRUM.
Also at the end of each line play the intro minus the first 4 powerchords.


Em (79987)
I've had nights i will never forget
Am (577555)
I've had nights i will always regret
Bm (24432)
but i can take it on the chin,
|--------------------------------------------|
|--------------------------------------------|
|-----------4-4-4-4-3-----4-4-4-4-3-4--------|
|--5-4--------------------------------5-4----|
|--3-2-5-4-2--------2-2-2--------------------|
|------3-2-0--------0-0-0--------------------|

and say "Boys Will Be Boys"

Excatly the same chord sequence as verse 1:

There's been girls that have stolen our hearts,
but the others said they couldn't be prised apart
whoever let's us in they say "Boys Will Be Boys"

Play this throughout the third verse ( You can work out the timing easy )
Play each power chord 8 times quickly.

|--------------------------------|
|--------------------------------|
|--------------------------------|
|-9-9-7-7-5-5-2------------------|
|-7-6-5-4-3-2-0------------------|
|--------------------------------|

Play this at the end  od the verse.( again, timing is easy )


|-------------------------------|
|-------------------------------|
|-------------------------------|
|--5-4--------------------------|
|--3-2-5-4-2---2-2-2---2---2-2-2|
|------3-2-0---0-0-0---0---0-0-0|
Related for Boys Will Be Boys tab