Song name
# A B C D E F G H I J K L M N O P Q R S T U V W X Y Z

Ore Ska Band - Pinocchio tab

Help us improve GuitareTab! Take a short survey!
Song: Pinocchio
Artist: Ore Ska Band ( http://www.oreskaband.com )
Album: Ore
Tabbed By: Poncho de la Luna

There are absolutely NO other Ore Ska Band tabs anywhere, so I decided to tab out all of 
album Ore. Expect guitar pros soon (the Pinocchio guitar pro is already done actually). 
now, here's the 3rd of 7 songs, Pinocchio.

Intro:

e------------------|
B------------------|
G-------5---3---5--|
D---3---5---3---5--|
A---3---3---1---3--|
E---1--------------|

    F   C   A#  C

Verse:

e----8---8---8---8---6---6---8---8---|
B----10--10--10--10--6---6---8---8---|
G----10--10--10--10--7---7---9---9---|
D----10--10--10--10--8---8---10--10--|
A----8---8---8---8---8---8---10--10--|
E--------------------6---6----8---8--|

     F               A#       C

Pre-Chorus:

e--------|--------|--------|------------|
B--------|--------|--------|------------|
G--------|--------|--------|------------|
D--8--10-|--8--10-|--8--10-|--8---11-10-|
A--8--10-|--8--10-|--8--10-|--8---11-10-|
E--6--8--|--6--8--|--6--8--|--6---9--8--|

   A# C     A# C     A# C     A# C# C

Chorus:

e----8---8---8---8---8---8---8---8--|--------------|
B----10--10--8---8---8---8---8---8--|--------------|
G----10--10--9---9---9---9---9---9--|--------------|
D----10--10--10--10--10--10--10--10-|--8----11-10--|
A----8---8---10--10--10--10--10--10-|--8----11-10--|
E------------8---8---8---8---8---8--|--6----9--8---|


     F       C                         A#   C# C

Outro: same as intro, end on F:


e--9---|
B--10--|
G--10--|
D--10--|
A--8---|
E------|

   F

Expect to see the rest of Ore up soon, and PM me on the forums or email me at 
with any questions, comments, complaints, threats, etc.
Related for Pinocchio tab