Guitaretab - guitar tabs
Song name
# A B C D E F G H I J K L M N O P Q R S T U V W X Y Z

Ore Ska Band - Pantime tab

Song: PANTIME
Artist: Ore Ska Band ( http://www.oreskaband.com )
Album: Ore
Tabbed By: Poncho de la Luna
Email: ponchosplayhouse@gmail.com

This is more of an introduction bit than a song, so it's short and simple.
Song 1 of 7, PANTIME. Yay.

Part 1:

e------------------------------|
B------------------------------|
G---11-11-11-11-9--9--9--9--9--|
D---11-11-11-11-9--9--9--9--9--|
A---9--9--9--9--7--7--7--7--7--|
E------------------------------|
    F#          E

e--------------------------------------|
B--------------------------------------|
G---11-11-11-11-11-14--14--14--14--14~~|
D---11-11-11-11-11-14--14--14--14--14~~|
A---9--9--9--9--9--12--12--12--12--12~~|
E--------------------------------------|
    F#             A

e------------------------------------|
B------------------------------------|
G---11-11-11-11-9--9--9--9--9----11~~|
D---11-11-11-11-9--9--9--9--9----11~~|
A---9--9--9--9--7--7--7--7--7----9~~~|
E------------------------------------|
    F#          E                F#

e---------------------|
B---------------------|
G--------------9--10--|
D--9--9--11-11-9--10--|
A--9--9--11-11-7--8---|
E--7--7--9--9---------|
   B     C#    E  F
[ Tab from: http://www.guitaretab.com/o/ore-ska-band/86633.html ]

e------------------------------|
B------------------------------|
G---11-11-11-11-9--9--9--9--9--|
D---11-11-11-11-9--9--9--9--9--|
A---9--9--9--9--7--7--7--7--7--|
E------------------------------|
    F#          E

e--------------------------------------|
B--------------------------------------|
G---11-11-11-11-11-14--14--14--14--14~~|
D---11-11-11-11-11-14--14--14--14--14~~|
A---9--9--9--9--9--12--12--12--12--12~~|
E--------------------------------------|
    F#             A

e------------------------------------|
B------------------------------------|
G---11-11-11-11-9--9--9--9--9----11~~|
D---11-11-11-11-9--9--9--9--9----11~~|
A---9--9--9--9--7--7--7--7--7----9~~~|
E------------------------------------|
    F#          E                F#      

e---------------|
B---------------|
G-----9--10-11~~|
D--11-9--10-11~~|
A--11-7--8--9~~~|
E--9------------|
   C# E  F  F#

Part 2:

During the talking part, hit 


e------|
B------|
G--11~~|
D--11~~|
A--9~~~|
E------|
   F#   

every so often, then repeat Part 1.

Expect to see the rest of Ore up soon, and PM me on the forums or email me
with any questions, comments, complaints, threats, etc.




Related for Pantime tab
×
Pantime