Song name
# A B C D E F G H I J K L M N O P Q R S T U V W X Y Z

Ore Ska Band - Knife To Fork tab

Song: Knife to Fork
Artist: Ore Ska Band ( http://www.oreskaband.com )
Album: Ore
Tabbed By: Poncho de la Luna
E-mail: ponchosplayhouse@gmail.com

(No interesting text to put here). Song 4 of 7, Knife to Fork. Actually, one of my favorite to play.

Intro:
            x2                              x1
e-------------|-----------------------------------|
B-------------|-----------------------------------|
G--7-------7--|--7-------7---------------7-----7--|
D--7----7--7--|--7----7--7--7--5----7----7--7--7--|
A--5----7--5--|--5----7--5--7--5----7----5--7--5--|
E-------5-----|-------5-----5--3----5-------5-----|
   D    A  D     D    A  D  A  G    A    D  A  D

e---------------------------------------------------|
B---------------------------------------------------|
G--7------------7-----------------------------------|
D--7----5--7----7----5---(5)-(5)-(5)-(5)-(5)-(5)-7--|
A--5----5--7----5----5---(5)-(5)-(5)-(5)-(5)-(5)-7--|
E-------3--5---------3---(3)-(3)-(3)-(3)-(3)-(3)-5--|
   D    G  A    D    G   [()= palm mute]         A

Verse:

e--5--5--5--5--3--3--5--5--|
B--7--7--7--7--3--3--5--5--|
G--7--7--7--7--4--4--6--6--|
D--7--7--7--7--5--5--7--7--|
A--5--5--5--5--5--5--7--7--|
E--------------3--3--5--5--|
   D           G     A

Pre-Chorus:

e-------------------------------------------------|
B-------------------------------------------------|
G--7------------------7---------------------------|
D--7----7----5--------7----7----2--4--5----7-7-7--|
A--5----7----5--------5----7----2--4--5----7-7-7--|
E-------5----3-------------5----0--2--3----5-5-5--|
   D    A    G        D    A    E  F# G    A

Chorus:

e--------------------------------------------|
B--------------------------------------------|
G--7-------------------7---------------------|
D--7--7-7--5-5--7-7----7--7-7--5-5--7-8--10--|
A--5--7-7--5-5--7-7----5--7-7--5-5--7-8--10--|
E-----5-5--3-3--5-5-------5-5--3-3--5-6--8---|
   D  A    G    A      D  A    G    A A# C

e----------------------------------------|
B----------------------------------------|
G--7-------------------7-----------------|
D--7--7-7--5-5--7-7----7--7-7--5-5~---7--|
A--5--7-7--5-5--7-7----5--7-7--5-5~---7--|
E-----5-5--3-3--5-5-------5-5--3-3~---5--|
   D  A    G    A      D  A    G      A

Repeat verse, pre-chorus, then chorus, and then...

Breakdown (for lack of a better term):

e--5----3--5--------------------------------------------|
B--7----3--5--------------------------------------------|
G--7----4--6----7-7-7-9-9-9-7-7-7-12-12-12-11-11-9-9-7--|
D--7----5--7--------------------------------------------|
A--5----5--7----5-5-5-7-7-7-5-5-5-10-10-10-9--9--7-7-5--|
E-------3--5--------------------------------------------|
   D    G  A  D     E     D     G        F#    E   D

e--5--5--5--5--3--3--6--6--|
B--7--7--5--5--3--3--6--6--|
G--7--7--6--6--4--4--7--7--|
D--7--7--7--7--5--5--8--8--|
A--5--5--7--7--5--5--8--8--|
E--------5--5--3--3--6--6--|
   D     A     G     A#

Then repeat the pre-chorus, chorus, and verse. That's it.

Expect to see the rest of Ore up soon, and PM me on the forums or email me  
with any questions, comments, complaints, threats, etc.
Tap to rate this tab
# A B C D E F G H I J K L M N O P Q R S T U V W X Y Z