Song name
# A B C D E F G H I J K L M N O P Q R S T U V W X Y Z

Ore Ska Band - Tsumasaki tab

ORESKABAND: http://www.sonymusic.co.jp/Music/Info/Oreskaband/

This song is simple as hell but I'll tab it out for all of you just cause I'm a nice duder.

Intro and verses:

x4x4x4x4--x7x7x7x7--x5x5x5x5x5x5x5x5--|
x5x5x5x5--x7x7x7x7--x5x5x5x5x5x5x5x5--|
x4x4x4x4--x8x8x8x8--x6x6x6x6x6x6x6x6--|
----------x9x9x9x9--x7x7x7x7x7x7x7x7--|
--------------------------------------|
--------------------------------------|

x4x4x4x4--x7x7x7x7--x-9x-9x-9x-9x-9x-9x-9x----|9x
x5x5x5x5--x7x7x7x7--x10x10x10x10x10x10x10x10x-|
x4x4x4x4--x8x8x8x8--x-9x-9x-9x-9x-9x-9x-9x----|9x
----------x9x9x9x9----------------------------|
----------------------------------------------|
----------------------------------------------|

Bridge, figure out the strumming yourself, it's easy:

------|
------|
9-----|
9-9-7-|
7-9-7-|
--7-5-|

chorus, this is what I could get out of it since the horns are so loud:
----------------|
----------------|
--7-------2-4---|
2-7--22-6-2-4-2-|
2-5--22-6-0-2-2-|
0----00-4-----0-|

Probably not perfect, but better than nothing.
Tap to rate this tab
 
# A B C D E F G H I J K L M N O P Q R S T U V W X Y Z