Song name
# A B C D E F G H I J K L M N O P Q R S T U V W X Y Z

Oren Lavie - Her Morning Elegance tab

Here`s Expresso!!!

This Is What I`ve Got Till this Moment


It goes Like This... (you figure out the right rythmn)


The Intro and the Verses

e -----------/------------/------------/---------------------|
B -----------/------------/------------/---------------------|
G ---8----8--/----3----3--/----8----8--/---------------------|
D ---8----8--/----5----5--/----8----8--/----7----7-----------|
A -----------/------------/--6----6----/----8----8-----------|
E -8----8----/--4----4----/------------/--6----6-------------|

Also... this Little Melody

(keep it ringing)

e  ---------------   -------------------------|
B  --------11-----   ---------11------11------|
G  ------------12-   -------------12----------|
D  ----10---------   -----10---------------12-|
A  ---------------   -------------------------|
E  -8-------------   --8----------------------|

As for the Chorus

You can Use


       Cm                G#
And she fights for her life
      D#7          A#
as she puts on her coat
Cm            G#            D#7
And she fights for her life on the train
A#           D#7
She looks at the rain
A#
as it pours
   Cm               G#
And she fights for her life
D#7            A#
as she goes in a store
Cm                    G#
with a thought she has caught
D#7
by a thread
    A#           D#7
she pays for the bread
        A#
and she goes…

Nobody knows

although its not perfect

Well, what do you think?
Tap to rate this tab
 
# A B C D E F G H I J K L M N O P Q R S T U V W X Y Z