Song name
# A B C D E F G H I J K L M N O P Q R S T U V W X Y Z

Orgy - Faces tab

Band- Orgy
Song- Faces

intro  phaser
     |---------7-0-0-7----7-0-0-7-----------|
     |--------------------------------------|
     |--------------------------------------|
     |--------------------------------------|
     |--------------------------------------|
     |--------------------------------------|


     Ryan    Ryan uses a 5 string guitar on this song with fuzz
            for jay and ryan
     |----------------------------------------|
     |----------------------------------------|
     |--------7-0-0--7------7-0-0-7-----------|
     |--------7-0-0--7------7-0-0-7-----------|
     |--------7-0-0--7------7-0-0-7-----------|
          jay (back up)
     |-----------------------------------------------|
     |-----------------------------------------------|
     |-----------------------------------------------|
     |-------7-0-0-7------7-0-0-7--------------------|
     |-------7-0-0-7------7-0-0-7--------------------|
     |-------7-0-0-7------7-0-0-7--------------------|

       chorus Amir pulls out jay and Ryan with heavy fuzz
          same as Ryan take off high e
      |--------------------------------------------------|
      |--------------------------------------------------|
      |--------------------------------------------------|
      |------2222-0000-7777------------------------------|
      |------2222-0000-7777------------------------------|
      |------2222-0000-7777------------------------------|
Tap to rate this tab
# A B C D E F G H I J K L M N O P Q R S T U V W X Y Z