Song name
# A B C D E F G H I J K L M N O P Q R S T U V W X Y Z

Orgy - Stitches tab

Stitches -from ablum candyass orgy freaking rocks scott now zipit -from jay gordans 1 
one fan tory 

   Intro 

   |------------------| L 
   |------------------| 
   |------------------| 
   |------------------| 
   |------------------| 
   |-xxx-xx-xx-xx-xxx-| 

   Verse 
   Amir does fx w/ 
   |-----------| L 
   |-14-and-15-| 
   |-----------| 
   |-----------| 
   |-----------| 
   |-----------| 

   Chorus 

   |-----------------------------| R 
   |-----------------------------| 
   |--------4-4-44---------------| 
   |-2-2-22-4-4-44-5-5-55-4-4-44-| 
   |-2-2-22-2-2-22-5-5-55-4-4-44-| 
   |-0-0-00--------3-3-33-2-2-22-| 

   |--------------------------------------------------------| L 
   |---------------19---------------------------------------| 
   |-20-18-------------------------20-18---------18---16-15-| 
   |-------16---------16-15--------------16-13--------------| 
   |--------------------------------------------------------| 
   |--------------------------------------------------------| 

   Interlude 

   |----------------------------------| R 
   |----------------------------------| 
   |----------------------------------| 
   |-7-7-7-7-7-8-8-8--3-3-3-3-3-2-2-2-| 
   |-7-7-7-7-7-8-8-8--3-3-3-3-3-2-2-2-| 
   |-5-5-5-5-5-6-6-6--1-1-1-1-1-0-0-0-| 

   |----------------------------------| L 
   |----------------------------------| 
   |-7-7-7-7-7-8-8-8--3-3-3-3-3-2-2-2-| 
   |-7-7-7-7-7-8-8-8--3-3-3-3-3-2-2-2-| 
   |----------------------------------| 
   |----------------------------------| 
Tap to rate this tab
# A B C D E F G H I J K L M N O P Q R S T U V W X Y Z