Song name
# A B C D E F G H I J K L M N O P Q R S T U V W X Y Z

Orgy - Revival tab

		     Revival - Orgy
-------------------------------------------------------------------------------
Tabbed by:
Email:

Tuning:Drop all one whole step
Gtr. 1  Refrain
e|-----------------------------------------------------------------------------|
B|-----------------------------------------------------------------------------|
G|-----------------------------------------------------------------------------|
D|-----------------------------------------------------------------------------|
A|444-4-555-555-777-7-222-222--------------------------------------------------|
E|222-2-333-333-555-5-000-000--------------------------------------------------|
Gtr.2
e|12-12-12---12---10-10-10---10---9--9--9--9----13-13-13---13--|
B|13-13-13---13---11-11-11---11---10-10-10-10---14-14-14---14--|
G|-------------------------------------------------------------|
D|-------------------------------------------------------------|
A|-------------------------------------------------------------|
E|-------------------------------------------------------------|
Bridge:
e|-----------------------------------------------------------------------------|
B|-----------------------------------------------------------------------------|
G|-----------------------------------------------------------------------------|
D|-----------------------------------------------------------------------------|
A|0--2--353--0--2-3-5----------------------------------------------------------|
E|-----------------------------------------------------------------------------|
Strophe:
e|---------------------------------------------------------------------------------|
B|----------------------------------------------------------10-----10--------------|
G|-------------------------------------------------------------9------8------------|
D|---------------------------------------------------------------------------------|
A|--------------------1-1----------------------------(0.58:)-----------------------|
E|1-1---1-1-0-0-xxxxx------1-1--1-1--0-0-xxxxx-------------------------------------|
Tap to rate this tab
# A B C D E F G H I J K L M N O P Q R S T U V W X Y Z