Guitaretab - guitar tabs
Song name
# A B C D E F G H I J K L M N O P Q R S T U V W X Y Z

Orgy - All The Same tab

All The Same 

   Verse 
   (Amir Does fx w/...) 
   |---------------| L 
   |-11-^-and 12-^-| 
   |---------------| 
   |---------------| 
   |---------------| 
   |---------------| 
   |---------------| 
[ Tab from: http://www.guitaretab.com/o/orgy/47482.html ]
   |-----------| R 
   |-----------| 
   |-----------| 
   |-----------| 
   |-----------| 
   |-4---5---4-| 
   |-2---3---2-| 

   Bridge 

   |---|---| R 
   |---|---| 
   |---|---| 
   |-4-|-5-| 
   |-4-|-5-| 
   |-2-|-3-| 
   16x 16x 

   Chorus 

   |----------| R 
   |----------| 
   |----------| 
   |----------| 
   |-5---3--7-| 
   |-3---1--5-| 

   |----------| L 
   |-12^---^--| 
   |----------| 
   |----------| 
   |----------| 
   |----------|
Related for All The Same tab
Advertisement will be closed in 10 seconds