Song name
# A B C D E F G H I J K L M N O P Q R S T U V W X Y Z

Orgy - Platinum tab

Platinum 

   Chorus/verse (for rhythme,no lead in verse) 

   |----------------| R 
   |----------------| 
   |-7---9>>--------| 
   |-7---7>>--9---5-| 
   |-5--------9---5-| 
   |----------7---3-| 

   |----------------| L 
   |----------------| 
   |-----9>>--------| 
   |-7---7>>------3-| 
   |-5--------9---3-| 
   |-5--------7---3-| 

   Fill 

   |-------12-11-10-------------| L 
   |----------------12----------| 
   |-14-12-------------10h12-12-| 
   |----------------------------| 
   |----------------------------| 
   |----------------------------| 

   Interlude 

   |---------12^r12^----------| L (sorry, couldn't figure out 
   |--------------------------| rhythme) 
   |-10h12p10--------12-10-12-| 
   |--------------------------| 
   |--------------------------| 
   |--------------------------|
Tap to rate this tab
# A B C D E F G H I J K L M N O P Q R S T U V W X Y Z