Song name
# A B C D E F G H I J K L M N O P Q R S T U V W X Y Z

Orgy - 107 tab

Band- Orgy
Song- 107

Tuning-(C# G# C# F# A# D#)

P=Phaser on

Intro + Outro GTR. 1-Whammy Pedal set one octave lower, Dist. + phaser set on 
settings. this is played 4 times, and  Paige (bass) does the main riff
|-------------------------------------|
|-------------------------------------|
|-------------------------------------|
|(6)P-(5)P----------------------------|
|(4)P-(3)P----------------------------|
|-------------------------------------|

GTR. Intro, Chorus, and Outro riff
|21-16-16-16--21-16-16-16--20-15-15-15--20-15-15-15|
|--------------------------------------------------|
|--------------------------------------------------|
|--------------------------------------------------|
|--------------------------------------------------|
|--------------------------------------------------|

GTR.1 Chorus (4x)
|-------------------------------------|
|-------------------------------------|
|-------------------------------------|
|6-6-6-6-6-6/9-9-5-5-5-5-5-5--3-3-----|
|4-4-4-4-4-4/7-7-3-3-3-3-3-3--1-1-----|
|-------------------------------------|
Interlude- GTR.2
|20-16--------17-16-------------------|
|-----14---14-------------------------|
|-------------------------------------|
|-------------------------------------|
|-------------------------------------|
|-------------------------------------|
Tap to rate this tab
 
# A B C D E F G H I J K L M N O P Q R S T U V W X Y Z