Song name
# A B C D E F G H I J K L M N O P Q R S T U V W X Y Z

Orgy - Slept So Long tab

This Tab is not so accurate but is near..

Key

~   Let ring
x   Mute
pm..  Palm Mute

Intro/verse
|--------------------------------------------------------------------------|
|--------------------------------------------------------------------------|
|--------------------------------------------------------------------------|
|------9-9-9---9-9-9---7-9-9--10-9-9---------------------------------------|
|------9-9-9---9-9-9---7-9-9--10-9-9---------------------------------------|
|------7-7-7---7-7-7---5-7-7---8-7-7---------------------------------------|
pm...................................

Chorus
|--------------------------------------------------------------------------|
|--------------------------------------------------------------------------|
|-----11~---11--12-12---11---8~--------------------------------------------|
|-----11~---11--12-12---11---8~--------------------------------------------|
|------9~----9--10-10----9---6~--------------------------------------------|
|------x-----x---x--x----x---x---------------------------------------------|





I'd like to dedicate this to my girl, my life, my love..
Tap to rate this tab
 
# A B C D E F G H I J K L M N O P Q R S T U V W X Y Z