Song name
# A B C D E F G H I J K L M N O P Q R S T U V W X Y Z

Orianthi - According To You tab

Hello friendly I do not have proven this tab but I wait for this good and as soon as it 
will modify in case of some error and if they please find some to warn to me and with it 
fix it to taste
Atte:Alex
E-mail:munchen06@yahoo.de

e------17Full---17--15---14h15-----------------|
B------------------------------17--------------|
G----------------------------------------------|
D----------------------------------------------|
A----------------------------------------------|
E----------------------------------------------|

e----------------------------------------------|
B--7--9-8--------------------------------------|
G---------9-8-------------9-8------------------|
D-------------9-8-----9-8----------------------|
A-----------------9-8--------------------------|
E----------------------------------------------|

e----------------------------------------------|
B----------------------------------------------|
G----------------------------------------------|
D--7--5Full------------------------------------|
A----------------5--6Full----------------------|
E----------7r6---------------------------------|

e-10-8-6-10-8-6-10-8-6-10-8-6-10-8-6-10-8-6-10-|
B----------------------------------------------|
G----------------------------------------------|
D----------------------------------------------|
A----------------------------------------------|
E----------------------------------------------|

e-12-10-8-12-10-8-12-10-8-12-10-8-12-10-8-12-10-|
B-----------------------------------------------|
G-----------------------------------------------|
D-----------------------------------------------|
A-----------------------------------------------|
E-----------------------------------------------|

e-13-12-10-13-12-10-13-12-10-13-12-10-13-12-10-|
B----------------------------------------------|
G----------------------------------------------|
D----------------------------------------------|
A----------------------------------------------|
E----------------------------------------------|

e-13-12-10-15-12-10-13-12-10-15-12-10-17-12-10-18-12-10-17-12-10-15-12-10--|
B--------------------------------------------------------------------------|
G--------------------------------------------------------------------------|
D--------------------------------------------------------------------------|
A--------------------------------------------------------------------------|
E--------------------------------------------------------------------------|
Tap to rate this tab
 
# A B C D E F G H I J K L M N O P Q R S T U V W X Y Z