Song name
# A B C D E F G H I J K L M N O P Q R S T U V W X Y Z

Orianthi - According To You tab

This is one of my first abatis that coat any error or observation please send to my email.
Alex
munchen06@yahoo.de
THNKS

 Intro
In this part the fingers emplace but the cords are not due to be above totally
only must make the sound of dull but in that position OK
 ---------------------------------|
 -------------------9-------------|
 -------------------9--x8---------|
 ---5-------7-------7-------7-----|
 ---5--x8---7--x8-----------7--x8-|
 ---3-------5---------------5-----|


 Chorus
In this part equal is made here but if they must sound normal:)
 --------------------------------------------------------------|
 -------------------9------------------------------------------|
 -------------------9--x8--------------------------------------|
 ---5-------7-------7-------7-------3x3x3x3--5-----------------|
 ---5--x8---7--x8-----------7--x8---3x3x3x3--5-----------------|
 ---3-------5---------------5-------1x1x1x1--3-----------------|

 Solo....
e------17Full---17--15---14h15-----------------|
B------------------------------17--------------|
G----------------------------------------------|
D----------------------------------------------|
A----------------------------------------------|
E----------------------------------------------|

e----------------------------------------------|
B---10-7---------------------------------------|
G--------10-7----------------------------------|
D-9------------9-8-----9-8-7--5F------5--6F----|
A-----------------9-8--------------------------|
E---------------------------------7r6----------|

e-10-8-6-10-8-6-10-8-6-10-8-6-10-8-6-10-8-6-10-|
B----------------------------------------------|
G----------------------------------------------|
D----------------------------------------------|
A----------------------------------------------|
E----------------------------------------------|

e-12-10-8-12-10-8-12-10-8-12-10-8-12-10-8-12-10-|
B-----------------------------------------------|
G-----------------------------------------------|
D-----------------------------------------------|
A-----------------------------------------------|
E-----------------------------------------------|

e-13-12-10-13-12-10-13-12-10-13-12-10-13-12-10-|
B----------------------------------------------|
G----------------------------------------------|
D----------------------------------------------|
A----------------------------------------------|
E----------------------------------------------|

e-13-12-10-15-12-10-13-12-10-15-12-10-17-12-10-18-12-10-17-12-10-15-12-10--|
B--------------------------------------------------------------------------|
G--------------------------------------------------------------------------|
D--------------------------------------------------------------------------|
A--------------------------------------------------------------------------|
E--------------------------------------------------------------------------|

 Chorus Repeat

End Part

------------------------------------------------|
------------------------------------------------|
------------------------------------------------|
--9999999--7-----------9999999------------------|
--9999999--7---x3------9999999------------------|
--7777777--5-----------7777777------------------|


It hopes likes
Tap to rate this tab
# A B C D E F G H I J K L M N O P Q R S T U V W X Y Z