Song name
# A B C D E F G H I J K L M N O P Q R S T U V W X Y Z

Orianthi - According To You tab

-------------------------------------------------------------------------------
			     ACCORDING TO YOU - Orianthi
-------------------------------------------------------------------------------

This is my second tab and I couldn’t figure out all the little licks orianthi does or 
solo so I just left that guitar out completely. Hopefully someone more skilled than myself 
come along and add those to the tab :)

Tabbed by: Mitch Robertson
Email: ju5t2good2btru@hotmail.com

Tuning: Drop D


Verse

Guitar 1
e|-----------------------------------------------------------------|
B|-----------------------------------------------------------------|
G|-----------------5-5-5-5-5-5-5-5-7-7-7-7-7-7-7-7-----------------|
D|-3-3-3-3-3-3-3-3-5-5-5-5-5-5-5-5-7-7-7-7-7-7-7-7-8-8-8-8-8-8-8-8-|
A|-3-3-3-3-3-3-3-3-3-3-3-3-3-3-3-3-5-5-5-5-5-5-5-5-8-8-8-8-8-8-8-8-|
D|-3-3-3-3-3-3-3-3---------------------------------8-8-8-8-8-8-8-8-| x3
P.M. . . . . . . . . . . . . . . . . . . . . . . . . . . . . . . .

e|-----------------------------------------------------------------|
B|-----------------------------------------------------------------|
G|-----------------5-5-5-5-5-5-5-5-7-7-7-7-7-7-7-7-----------------|
D|-3-3-3-3-3-3-3-3-5-5-5-5-5-5-5-5-7-7-7-7-7-7-7-7-8---------------|
A|-3-3-3-3-3-3-3-3-3-3-3-3-3-3-3-3-5-5-5-5-5-5-5-5-8---------------|
D|-3-3-3-3-3-3-3-3---------------------------------8---------------|
P.M. . . . . . . . . . . . . . . . . . . . . . . .

Guitar 2 (comes in after guitar 1 plays twice)
e|-----------------------------------------------------------------|
B|---------1---------------1---------------1---------------1-------|
G|-----0-------0-------0-------0-------0-------0-------0-------0---|
D|-3---------------3---------------3---------------3---------------|
A|-----------------------------------------------------------------|
E|-----------------------------------------------------------------|

e|-1---1---1---1---3---3---3---3---1---1---1---1---3---------------|
B|---1---1---1---1---1---1---1---1---1---1---1---1-----------------|
G|-----------------------------------------------------------------|
D|-----------------------------------------------------------------|
A|-----------------------------------------------------------------|
E|-----------------------------------------------------------------|


Chorus

Guitar 1
e|-----------------------------------------------------------------|
B|-----------------------------------------------------------------|
G|-----------------------------------------------------------------|
D|-8-8-8-8-8-8-8-8-10101010101010100-0-0-0-0-0-0-0-5-5-5-5-5-5-5-5-|
A|-8-8-8-8-8-8-8-8-10101010101010100-0-0-0-0-0-0-0-5-5-5-5-5-5-5-5-|
D|-8-8-8-8-8-8-8-8-10101010101010100-0-0-0-0-0-0-0-5-5-5-5-5-5-5-5-| x3

e|-----------------------------------------------------------------|
B|-----------------------------------------------------------------|
G|-----------------5-----------------------------------------------|
D|-8---8---8---8---5-----------------------------------------------|
A|-8---8---8---8---3-----------------------------------------------|
D|-8---8---8---8---------------------------------------------------|

Guitar 2 (comes in after guitar 1 plays twice)
e|-----------------------------------------------------------------|
B|-----------------------------------------------------------------|
G|-9---10-9---10-9---10-7-9-10-9---10-9---7h9p7--------------------|
D|----------------------------------------------7~-----------------|
A|-----------------------------------------------------------------|
E|-----------------------------------------------------------------|

e|-101010101010101012\---------------------------------------------|
B|-----------------------------------------------------------------|
G|-7-7-7-7-7-7-7-7-9-\---------------------------------------------|
D|-----------------------------------------------------------------|
A|-----------------------------------------------------------------|
E|-----------------------------------------------------------------|

Guitar 1
e|---------------------------------|
B|---------------------------------|
G|---------------------------------|
D|---8-8-8-8-8---0---8-8-8-8-8---0-|
A|---8-8-8-8-8---0---8-8-8-8-8---0-|
D|---8-8-8-8-8---0---8-8-8-8-8---0-|


Verse

Guitar 1
e|-----------------------------------------------------------------|
B|-----------------------------------------------------------------|
G|-----------------5-5-5-5-5-5-5-5-7-7-7-7-7-7-7-7-----------------|
D|-3-3-3-3-3-3-3-3-5-5-5-5-5-5-5-5-7-7-7-7-7-7-7-7-8-8-8-8-8-8-8-8-|
A|-3-3-3-3-3-3-3-3-3-3-3-3-3-3-3-3-5-5-5-5-5-5-5-5-8-8-8-8-8-8-8-8-|
D|-3-3-3-3-3-3-3-3---------------------------------8-8-8-8-8-8-8-8-|
P.M. . . . . . . . . . . . . . . . . . . . . . . . . . . . . . . .

e|-----------------------------------------------------------------|
B|-----------------------------------------------------------------|
G|-----------------5-5-5-5-5-5-5-5-7-7-7-7-7-7-7-7-----------------|
D|-3-3-3-3-3-3-3-3-5-5-5-5-5-5-5-5-7-7-7-7-7-7-7-7-8-8-8-8-8-8-8-8-|
A|-3-3-3-3-3-3-3-3-3-3-3-3-3-3-3-3-5-5-5-5-5-5-5-5-8-8-8-8-8-8-8-8-|
D|-3-3-3-3-3-3-3-3---------------------------------8-8-8-8-8-8-8-8-|
P.M. .   . . . . . . .   . . . . . . .   . . . . . . .   . . . . .

e|-----------------------------------------------------------------|
B|-----------------------------------------------------------------|
G|-----------------5-5-5-5-5-5-5-5-7-7-7-7-7-7-7-7-----------------|
D|-3-3-3-3-3-3-3-3-5-5-5-5-5-5-5-5-7-7-7-7-7-7-7-7-8-8-8-8-8-8-8-8-|
A|-3-3-3-3-3-3-3-3-3-3-3-3-3-3-3-3-5-5-5-5-5-5-5-5-8-8-8-8-8-8-8-8-|
D|-3-3-3-3-3-3-3-3---------------------------------8-8-8-8-8-8-8-8-|
P.M. .   . . .   . . .   . . .   . . .   . . .   . . .   . . .   .

e|-----------------------------------------------------------------|
B|-----------------------------------------------------------------|
G|-----------------5-5-5-5-5-5-5-5-7-7-7-7-7-7-7-7-----------------|
D|-3-3-3-3-3-3-3-3-5-5-5-5-5-5-5-5-7-7-7-7-7-7-7-7-8-8-8-8-8-8-8-8~|
A|-3-3-3-3-3-3-3-3-3-3-3-3-3-3-3-3-5-5-5-5-5-5-5-5-8-8-8-8-8-8-8-8~|
D|-3-3-3-3-3-3-3-3---------------------------------8-8-8-8-8-8-8-8~|

Guitar 2
e|-----------------------------------------------------------------|
B|---------1---------------1---------------1---------------1-------|
G|-----0-------0-------0-------0-------0-------0-------0-------0---|
D|-3---------------3---------------3---------------3---------------|
A|-----------------------------------------------------------------|
E|-----------------------------------------------------------------|

e|-1---1---1---1---3---3---3---3---1---1---1---1---3---------------|
B|---1---1---1---1---1---1---1---1---1---1---1---1-----------------|
G|-----------------------------------------------------------------|
D|-----------------------------------------------------------------|
A|-----------------------------------------------------------------|
E|-----------------------------------------------------------------|


Chorus

Guitar 1
e|-----------------------------------------------------------------|
B|-----------------------------------------------------------------|
G|-----------------------------------------------------------------|
D|-8-8-8-8-8-8-8-8-10101010101010100-0-0-0-0-0-0-0-5-5-5-5-5-5-5-5-|
A|-8-8-8-8-8-8-8-8-10101010101010100-0-0-0-0-0-0-0-5-5-5-5-5-5-5-5-|
D|-8-8-8-8-8-8-8-8-10101010101010100-0-0-0-0-0-0-0-5-5-5-5-5-5-5-5-| x3

e|---------------------------------|
B|---------------------------------|
G|-----------------5---------------|
D|-8---8---8---8---5---------------|
A|-8---8---8---8---3---------------|
D|-8---8---8---8-------------------|

Guitar 2
e|-------13----------------8--------------/13\-8---8--h10----------|
B|-10-/13----13-\8-----------10p8h10~------------------------------|
G|-----------------------------------------------------------------|
D|-----------------------------------------------------------------|
A|-----------------------------------------------------------------|
E|-----------------------------------------------------------------| x2

e|-----------------------------------------------------------------|
B|-----------------------------------------------------------------|
G|-9---10-9---10-9---10-7-9-10-9---10-9---7h9p7--------------------|
D|----------------------------------------------7~-----------------|
A|-----------------------------------------------------------------|
E|-----------------------------------------------------------------|

e|-101010101010101012~-------------|
B|---------------------------------|
G|-7-7-7-7-7-7-7-7-9-~-------------|
D|---------------------------------|
A|---------------------------------|
E|---------------------------------|


Bridge

Guitar 1
e|-----------------------------------------------------------------|
B|-----------------------------------------------------------------|
G|-----------------------------------------------------------------|
D|-8-8-8-8-8-8-8-8-0-0-0-0-0-0-0-0-3-3-3-3-3-3-3-3-7-7-7-7-7-7-7-7-|
A|-8-8-8-8-8-8-8-8-0-0-0-0-0-0-0-0-3-3-3-3-3-3-3-3-7-7-7-7-7-7-7-7-|
D|-8-8-8-8-8-8-8-8-0-0-0-0-0-0-0-0-3-3-3-3-3-3-3-3-7-7-7-7-7-7-7-7-| x2
P.M. .   . . .   . . .   . . .   . . .   . . .   . . .   . . .   .

Guitar 2
e|-----------------------------------------------------------------|
B|-----------------------------------------------------------------|
G|-----2---3---2-------2---3---2-------2---3---2-------2---3---2---|
D|-0---------------3---------------2---------------3---------------|
A|-----------------------------------------------------------------|
E|-----------------------------------------------------------------| x2


Solo

Guitar 1
e|-----------------------------------------------------------------|
B|-----------------------------------------------------------------|
G|-----------------------------------------------------------------|
D|-8-8-8-8-8-8-8-8-10101010101010100-0-0-0-0-0-0-0-5-5-5-5-5-5-5-5-|
A|-8-8-8-8-8-8-8-8-10101010101010100-0-0-0-0-0-0-0-5-5-5-5-5-5-5-5-|
D|-8-8-8-8-8-8-8-8-10101010101010100-0-0-0-0-0-0-0-5-5-5-5-5-5-5-5-| x2


Bridge - guitars play nothing


Chorus

Guitar 1
e|-----------------------------------------------------------------|
B|-----------------------------------------------------------------|
G|-----------------------------------------------------------------|
D|-8-8-8-8-8-8-8-8-10101010101010100-0-0-0-0-0-0-0-5-5-5-5-5-5-5-5-|
A|-8-8-8-8-8-8-8-8-10101010101010100-0-0-0-0-0-0-0-5-5-5-5-5-5-5-5-|
D|-8-8-8-8-8-8-8-8-10101010101010100-0-0-0-0-0-0-0-5-5-5-5-5-5-5-5-| x3

e|---------------------------------|
B|---------------------------------|
G|-----------------5~--------------|
D|-8---8---8---8---5~--------------|
A|-8---8---8---8---3~--------------|
D|-8---8---8---8-------------------|

Guitar 2
e|-------13----------------8--------------/13\-8---8--h10----------|
B|-10-/13----13-\8-----------10p8h10~------------------------------|
G|-----------------------------------------------------------------|
D|-----------------------------------------------------------------|
A|-----------------------------------------------------------------|
E|-----------------------------------------------------------------| x2

e|-----------------------------------------------------------------|
B|-----------------------------------------------------------------|
G|-9---10-9---10-9---10-7-9-10-9---10-9---7h9p7--------------------|
D|----------------------------------------------7~-----------------|
A|-----------------------------------------------------------------|
E|-----------------------------------------------------------------|

e|-101010101010101012~-------------|
B|---------------------------------|
G|-7-7-7-7-7-7-7-7-9-~-------------|
D|---------------------------------|
A|---------------------------------|
E|---------------------------------|


Guitar 1
e|---------------------------------|
B|---------------------------------|
G|---------------------------------|
D|---8-8-8-8-8---0---8-8-8-8-8---0-|
A|---8-8-8-8-8---0---8-8-8-8-8---0-|
D|---8-8-8-8-8---0---8-8-8-8-8---0-| x2

Guitar 2
e|---13--13--13--13--13--13--13--13|
B|---13--13--13--13--13--13--13--13|
G|---10--10--10--10--10--10--10--10|
D|---------------------------------|
A|---------------------------------|
E|---------------------------------| x2


Outro

Acoustic Guitar
e|-----------------------------------------------------------------|
B|-----------------------------------------------------------------|
G|---------------------7-----7~--------5-----5~--------------------|
D|-----3-----3~------7-----7---------5-----5-----------------------|
A|---3-----3-------5-----5---------3-----3-------------------------|
E|-1-----1---------------------------------------------------------|


| /    slide up
| \    slide down
| h    hammer-on
| p    pull-off
| ~    hold note
| +    harmonic
| x    mute note
| P.M. palm mute
===============================================================================
Tap to rate this tab
# A B C D E F G H I J K L M N O P Q R S T U V W X Y Z