Song name
# A B C D E F G H I J K L M N O P Q R S T U V W X Y Z

Orianthi - Drive Away Acoustic chords

-----------------------------------------------------------------------------
	            Drive away (acoustic version) - Orianthi
-----------------------------------------------------------------------------

Tabbed by: Sylar and TheCrazyStyle

Email: Sylar__93__@hotmail.it

Description: This is only the intro of the acoustic version of "Drive away" from 
(you can find the original one here: http://www.youtube.com/watch?v=X9zO7qZfWpY ) tabbed by me 
a friend of mine...
Hope it helps
Bye :-)

Tuning: Standard

e|-------------------------------------------------------------------------|
B|-------------------7---6---X---6--------------------7---6----------------|
G|---------------10------6---X---6----------------10------6---------6h8----|
D|-------8-------8---8---6---X---6---------8------8---8---6---6/8----------|
A|--4/6-----6----6---6---4---X---4----4/6-----6---6---6---4----------------|
E|-------------------------------------------------------------------------|

e|-------------------------------------------------------------------------|
B|-------------------------------------------------------------------------|
G|-------------------------------------------------------------------------|
D|--6h7p6------------------------------------------------------------------|
A|-----------9---6---4-----------------------------------------------------|
E|-------------------------------------------------------------------------|

-----------------------------------------------------------------------------
Repeat for 3 times
-----------------------------------------------------------------------------

| /  slide up
| h  hammer-on
| p  pull-off

=============================================================================
Tap to rate this tab
# A B C D E F G H I J K L M N O P Q R S T U V W X Y Z